#----------------------------------PLEASE NOTE---------------------------------#
#This file is the author's own work and represents their interpretation of the-#
#song. You may only use this file for private study, scholarship, or research.-#
#------------------------------------------------------------------------------#
LACRIMOSA - COPYCAT
Submitted By: Alejandro
EMail: [email protected]

INTRO:
|---------------------------------------|
|---------------------------------------|
|--2--------2--------2--------2---------|
|--2--------2--------2--------2----2----|
|--0--------0--------0--------0----0----|
|---------------------------------------|
|----------------------------------------------------|
|----------------------------------------------------|FIG1
|--2--2.-------2--2.--------2--2.-------2--2.--------|
|--2--2.-------2--2.--------2--2.-------2--2.--------|
|--0--0.-------0--0.--------0--0.-------0--0.--------|X2
|----------------------------------------------------|

VERSE1:
-FIG1 X2
-Then...
|----------------------------------------------------|
|----------------------------------------------------|
|--2-2-2.-------2-2-2.--------2-2-2.--2-2-2.--2------|
|--2-2-2.-------2-2-2.--------2-2-2.--2-2-2.--2------|
|--0-0-0.-------0-0-0.--------0-0-0.--0-0-0.--0------|
|----------------------------------------------------|
|-----------------------------------------------------------------------|
|-----------------------------------------------------------------------|
|--2-2--------------2-2--------------2-2--------------2-2---------------|X2
|--2-2--------------2-2--------------2-2--------------2-2---------------|
|--0-0-000000000000-0-0-000000000000-0-0-000000000000-0-0-000000000000--|
|-----------------------------------------------------------------------|
PM.......... ............ ............ ............

CHORUS:
|--------------------------------------|
|--------------------------------------|
|--2-----------------2-----------------|
|--2--------2--------2--------2--------|------------------------|
|--0--------2--------0--------2--------| |
|-----------0-----------------0--------| |FIG2
|
|-----------------------------------------------------------| |X2
|-----------------------------------------------------------| |
|-----------------------------------------------------------|---|
|-----------------------------------------------------------|
|-----2----2----2----2----2---2----2----2-----7-7.----5-5.-|
|--00-0-00-0-00-0-00-0-00-0-0-0-00-0-00-0-----5-5.----3-3.-|
PM .. .. .. .. . .. ..

VERSE2:
-FIG1 X4
-Drum solo
-Then...
|----------------------------------------------------------------------------|
|----------------------------------------------------------------------------|
|----------------------------------------------------------------------------|
|----------------------------------------------------------------------------|
|-3-3-3.----3-3-3.----3-3-3.------------3-3-3.----3-3-3.----3-3-3.-----------|
|-1-1-1.----1-1-1.----1-1-1.------------1-1-1.----1-1-1.----1-1-1.-----------|
|----------------------------------------------------------------------------|
|----------------------------------------------------------------------------|
|----------------------------------------------------------------------------|
|----------------------------------------------------------------------------|
|-5-5-5.----5-5-5.----5-5-5.------------5-5-5.----5-5-5.----5-5-5.-----------|
|-3-3-3.----3-3-3.----3-3-3.------------3-3-3.----3-3-3.----3-3-3.-----------|

VERSE3:
-FIG1 X2
-Then...
|---------------------------------------------------------------|
|---------------------------------------------------------------|
|---------------------------------------------------------------|
|---------------------------------------------------------------|
|-3--3.---3--3.---3--3.-----------3--3.---3--3.---3--3.---------|
|-1--1.---1--1.---1--1.-----------1--1.---1--1.---1--1.---------|

CHORUS:
-FIG2 X2

VERSE4:
-FIG1 X2

INTERLUDE:
-Drums
-Drums and bass
-Then:
|-----------------------------------------------------------------------|
|-----------------------------------------------------------------------|
|-----------------------------------------------------------------------|
|-----------------------------------------------------------------------|X2
|--0000000000000000-0000000000000000-0000000000000000-0000000000000000--|
|-----------------------------------------------------------------------|
PM.............. ................ ................ ................
|----------------------------------------------------------------------------|
|----------------------------------------------------------------------------|
|----------------------------------------------------------------------------|
|----------------------------------------------------------------------------|
|-3-3.--3-3.--3-3.---3-3.--3-3.--3-3.----5-5.--5-5.--5-5.---5-5.--5-5.--5-5.-|
|-1-1.--1-1.--1-1.---1-1.--1-1.--1-1.----3-3.--3-3.--3-3.---3-3.--3-3.--3-3.-|
================================================================================




Ваше мнение



Капча