la Renga El Final es en donde раrтн (TAB)
Tabbed by maria de los angeles cambra : [email protected]

Intro y estrofa:
-------------------------------------------------------------------------
-------------------------------------------------------------------------
-------------------------------------------------------------------------
-------------------------------------------------------------------------
--5--2--5--7-----8--7--5--2------2-0-1-2------5--2--5--7-----8--7--5--2--
--3--0--3--5-----6--5--3--0-------------------3--0--3--5-----6--5--3--0--
Estribillo:
-------------------------------- =20
--------------------------------
-------------------------------- x2
----5-----7---------------------
----3--5--5--8--7--5--2---------
-------3-----6--5--3--0---------




Ваше мнение



Капча