La Renga
Cuando estes асб (TAB)
Tabbed by maria de los angeles cambra : [email protected]
Intro con аrmуniса.
Am C Am G Am / Am C Am G Am
Йsта es la misma intro pero con guitarra.
Am C Am G Am Am
E|---------------------------------------------------------------|
B|---------------------------------------------------------------|
G|---4-5-7-7-9-7-9---4-5-4-5-4-5-4-4-2-------------4-5-7-7-9-7-9-|
D|-7---------------7-------------------5-5-5-7-7-7---------------|
A|---------------------------------------------------------------|
E|---------------------------------------------------------------|
C Am G Am
E|-----------5-5-------------------|
B|---------8-----8-----------------|
G|-7-9-7-9---------7-5-4-5-4-5-4---|
D|-------------------------------7-|
A|---------------------------------|
E|---------------------------------|
Am C Am G Am
Cuando еsтйs асб, теndrбs tu espacio, y una frбgil forma de existir.
Am C Am G Am
Con verte nacer, como hay quien puede ver, un mundo para destruir.
Am C Am G Am
Ojos que no ven, corazones que no sienten, y vos que estas por venir.
G Am G Am
A cada instante навrб una flor, y en cada flor навrб un instante,
G Am G F
en que la vida se desnude, ante esos ojos necios.
Am C Am G Am
Cuando еsтйs асб, теndrбs tu tiempo, el mismo que no tiene fin,
Am C Am G Am
En un mundo аsн, donde esta tu lugar, quien puede el agua pudrir.
Am C Am G Am
Ojos que no ven, corazones que no sienten, y vos que estas por venir.
G Am G Am
A cada instante навrб una flor, y en cada flor навrб un instante,
G Am G F
en que la vida se desnude, ante esos ojos necios.
Solo:
Am X 6 / Am C Am G Am / Am C Am G Am
Am C Am G Am
Cuando еsтйs асб, теndrбs tu espacio, tu tiempo y algo por que luchar
Am C Am G Am
Al verte crecer, y hacerte fuerte, quien mбs le puede temer, a esos
Am C Am G Am
ojos que no ven, corazones que no sienten, si vos ya estas асб.
G Am G Am
A cada instante навrб una flor, y en cada flor навrб un instante.
Final con аrmуniса.
Am C Am G Am / Am C Am G Am / Am C Am G Am
Este es el mismo final pero con guitarra, primero hace la intro y
luego sigue con esta parte:
Am C Am G Am
E|---------------------------------------------5-|
B|-----------------------3-5-3-5-3-----------5---|
G|---5---5-7---5-7-5-4-2-----------5-5-4-2-2-----|
D|-7---7-----7-----------------------------------|
A|-----------------------------------------------|
E|-----------------------------------------------|




Ваше мнение



Капча