Tabbed by german sadday
neruda songs
[email protected]
Song : tierra
Band : la ley
uno
cuevas, rojas.
2000
Intro:
Am C G E Am
1|-----------|-----------|----------|-----------|-5-----------
2|-----------|-------1---|-------3--|-------0---|---5---------
3|-------5---|-----0---0-|-----4--4-|-----1---1-|-----5-------
4|-----7---7-|---2-------|---5------|---2-------|-------7-----
5|---7-------|-3---------|-5--------|-2---------|---------7---
6|-5---------|-----------|----------|-----------|-----------5-
Am C G E
1|---------------|---------------|--------------|---------------
2|---------------|-------1-------|-------3------|-------0-------
3|-------5-------|-----0---0-----|-----4--4-----|-----1---1-----
4|-----7---7-----|---2-------2---|---5------5---|---2-------2---
5|---7-------7---|-3-----------3-|-5----------5-|-2-----------2-
6|-5-----------5-|---------------|--------------|---------------
Tierra que en el tiempo has quedado postergada en vientos
Am C G D
1|---------------|---------------|--------------|-2--------2----
2|---------------|-------1-------|-------3------|---3------3----
3|-------5-------|-----0---0-----|-----4--4-----|-----2----2----
4|-----7---7-----|---2-------2---|---5------5---|-------0-------
5|---7-------7---|-3-----------3-|-5----------5-|---------------
6|-5-----------5-|---------------|--------------|---------------
lejanos pasados amados
Am C G E
1|---------------|---------------|--------------|---------------
2|---------------|-------1-------|-------3------|-------0-------
3|-------5-------|-----0---0-----|-----4--4-----|-----1---1-----
4|-----7---7-----|---2-------2---|---5------5---|---2-------2---
5|---7-------7---|-3-----------3-|-5----------5-|-2-----------2-
6|-5-----------5-|---------------|--------------|---------------
Tierra que no entiendo y me olvidas cuando salgo al mundo
Am C G D
1|---------------|---------------|--------------|-2--------2----
2|---------------|-------1-------|-------3------|---3------3----
3|-------5-------|-----0---0-----|-----4--4-----|-----2----2----
4|-----7---7-----|---2-------2---|---5------5---|-------0-------
5|---7-------7---|-3-----------3-|-5----------5-|---------------
6|-5-----------5-|---------------|--------------|---------------
portando tu nombre sосаndо
(1:00)
1|-5------------------------------
2|---5----------------------------
3|-----5--------5-----5-----5-----
4|-------7--------7-----7-----7---
5|---------7--------7-----7-----7-
6|-----------5--------------------
Am D E
Lejos del ayer aqui estoy ехтrасаndоте
Am D E
Lejos del ayer aqui estoy ехтrасаndоте tu calor
Am
Am C G E
1|---------------|---------------|--------------|---------------
2|---------------|-------1-------|-------3------|-------0-------
3|-------5-------|-----0---0-----|-----4--4-----|-----1---1-----
4|-----7---7-----|---2-------2---|---5------5---|---2-------2---
5|---7-------7---|-3-----------3-|-5----------5-|-2-----------2-
6|-5-----------5-|---------------|--------------|---------------
Tierra que has sufrido el martirio de las manos
Am C G D
1|---------------|---------------|--------------|-2--------2----
2|---------------|-------1-------|-------3------|---3------3----
3|-------5-------|-----0---0-----|-----4--4-----|-----2----2----
4|-----7---7-----|---2-------2---|---5------5---|-------0-------
5|---7-------7---|-3-----------3-|-5----------5-|---------------
6|-5-----------5-|---------------|--------------|---------------
del odio armado de odio
Am C G D
1|---------------|---------------|--------------|-2--------2----
2|---------------|-------1-------|-------3------|---3------3----
3|-------5-------|-----0---0-----|-----4--4-----|-----2----2----
4|-----7---7-----|---2-------2---|---5------5---|-------0-------
5|---7-------7---|-3-----------3-|-5----------5-|---------------
6|-5-----------5-|---------------|--------------|---------------
Tierra que se olvida las canciones que por ti darian
Am C G D
1|---------------|---------------|--------------|-2--------2----
2|---------------|-------1-------|-------3------|---3------3----
3|-------5-------|-----0---0-----|-----4--4-----|-----2----2----
4|-----7---7-----|---2-------2---|---5------5---|-------0-------
5|---7-------7---|-3-----------3-|-5----------5-|---------------
6|-5-----------5-|---------------|--------------|---------------
las gracias a la vida un dia mas
Am D E
Lejos del ayer aqui estoy recordando tu calor
Am D E
Lejos del ayer aqui estoy revelando mi amor
Am C G D
(el solo saquenlo ustedes que es facil)
Am C G E *2
Arrimada en el sur...
-esta cancion se la dedico a Lupita que la quiero mucho mucho.-




Ваше мнение



Капча