Artista:Mana
Cancion:Oye mi amor
Cd:Donde jugaran los niсos?
Transcrita por: Omar Laracuente
Trujillo Alto Puerto Rico
E-mail: [email protected]
conversion ejemplo
pull off----------> 11p9
hammer on---------> 0h3
palm mute---------> p.m.....
vibrated----------> 12~
bend half step----> 3^
bend whole step---> 3^^
muffled string----> --x----
mantenerla--------> (7)
(Intro.)
Bm A
1 |-xx--7---xx--7---xx--7---xx--5-----|
2 |-xx--7---xx--7---xx--7---xx--5-----|
3 |-xx--7---xx--7---xx--7---xx--8-----| (Continua el ritmo con el intro
4 |-xx--9---xx--9---xx--9---xx--7-----| del Keyboard)
5 |-xx--9---xx--9---xx--9---xx--7-----|
6 |-xx--7---xx--7---xx--7---xx--5-----|
(verso)
Bm A
1 |-xx-7-xx-7--xx--7--xx--5----------------------------------------|
2 |-xx-7-xx-7--xx--7--xx--5-----------12---------------------------|
3 |-xx-7-xx-7--xx--7--xx--8-----------------12~----------11-12-----|
4 |-xx-9-xx-9--xx--9--xx--7---9-12-9-----12------9-12-9--------12~-|
5 |-xx-9-xx-9--xx--9--xx--7----------------------------------------|
6 |-xx-7-xx-7--xx--7--xx--5----------------------------------------|
(Bridge)
A Bm
1 |-xx-5-xx-5--xx--5--xx--5--xx-7-----------------------------|
2 |-xx-5-xx-5--xx--5--xx--5--xx-7-----------------------------|
3 |-xx-8-xx-8--xx--8--xx--8--xx-7----11p9----9~----------9p0--|
4 |-xx-7-xx-7--xx--7--xx--7--xx-9---------12---12-9-12--------|
5 |-xx-7-xx-7--xx--7--xx--7--xx-9-----------------------------|
6 |-xx-5-xx-5--xx--5--xx--5--xx-7-----------------------------|
(continuacion Bridge)
A G Bm A
1 |-xx-5-xx-5--xx--5--xx--5--xx-3--xx--3--xx--7--xx--7--xx--5------|
2 |-xx-5-xx-5--xx--5--xx--5--xx-3--xx--3--xx--7--xx--7--xx--5------|
3 |-xx-8-xx-8--xx--8--xx--8--xx-4--xx--4--xx--7--xx--7--xx--8------|
4 |-xx-7-xx-7--xx--7--xx--7--xx-5--xx--5--xx--9--xx--9--xx--7------|
5 |-xx-7-xx-7--xx--7--xx--7--xx-5--xx--5--xx--9--xx--9--xx--7------|
6 |-xx-5-xx-5--xx--5--xx--5--xx-3--xx--3--xx--7--xx--7--xx--5------|
(continuacion bridge)
1 |---------------------------------------------------|
2 |---------------------------------------------------|
3 |-----------------------------11p9-------9^^--------|
4 |-----------------------------------12---------12~--|
5 |------------------0--------------------------------|
6 |--0h3-33-3p0--3------------------------------------|
*******************
( *Tocar con el pick bien cerca del puente de la guitarra )
(Coro)
1 |----------------------------------------------------|
2 |------------8-8-7-------------10-10-9-8-------------|
3 |-------7----------7-------7-------------------------|
4 |---9-9---9------------9-9---9-----------------------|
5 |----------------------------------------------------|
6 |----------------------------------------------------|
P.m........................................
(coro continuacion..)
1 |----------------------------------------------------|
2 |------------8-8-7--------x-7------10-10-9-8---------|
3 |-------7----------7------x-7--7-7-------------------|
4 |---9-9---9---------------x-9------------------------|
5 |----------------------------------------------------|
6 |----------------------------------------------------|
p.m....................... ................
(Intermedio)
1 |----------------------------------------------------|
2 |-----------7-----(7)--------8-----------------------|
3 |-------7-----------------------7--------------------|
4 |---9------------------------------9-----(9)---------|
5 |----------------------------------------------------|
6 |----------------------------------------------------|
(Final)
1 |----------------------------------------------------|
2 |----------------------------------------------------|
3 |----7-7-7-7--9-7---7---7-7-7--9-7-------------------|
4 |-----------------9-----------------9----------------|
5 |----------------------------------------------------|
6 |----------------------------------------------------|
p.m.................................




Ваше мнение



Капча