mentira_unplugged.tab------------------------------ 12:55 3/29/2002
La Ley !
MENTIRA *UNPLUGGED* !
MTV UNPLUGGED 2K1 !
------------------------------
interpretacion de.. !
rafael campos ramirez !
[email protected] !
------------------------------
Todas las canciones del Unplugged son tocadas por 2 guitarras o mas,
una que haga el ruido y la otra los aracles... ;)
(INTRO)
Am - C - G Am- C - G **varias veces**
E|------------------------------------------------------------------|
B|------------------------------------------------------------------|
G|-------5-5--7-9-7-7-7p5-4-4---------------------------------------|
D|---7-9-----------------------7--------7-9-5-5---------------------|
A|-7-----------------------------5p7--7---------7-5---7-5-(3)-------|
E|--------------------------------------------------8---------------|
E|---------|-------------|---------------|--------------|-----------|
B|---------|-------------|---------------|--------------|-----------|
G|---4-4-5-|-5-5-7-7-7/9-|---------------|---4-----4-5--|---7p9-7---|
D|---------|-------------|---9-9-7-5-----|-----7--------|-----------|
A|---------|-------------|-----------7---|-7-----7------|-----------|
E|---------|-------------|---------------|--------------|-----------|
E|--5-5--7--8--8/12--|----------------------------|--7-7--5---------|
B|-------------------|----------------------------|---------8-5-----|
G|-------------------|---9--9---8--7--5--5p7-7/9--|-----------------|
D|-------------------|--11-11--10--9--7-----------|-----------------|
A|-------------------|--11-11--10--9--7-----------|-----------------|
E|-------------------|----------------------------|-----------------|
(solo)
E|------------------------------------3-----------------------------|
B|----------------------------------3---3p5-5~----------------------|
G|--4-5~-5~--5-4-5~-5~---4-5~-5~--5------------5--4-7-4-5--4--------|
D|-7--------------------7------------------------------------7-5----|
A|7--------------------7-----------------------------------------7--|
E|------------------------------------------------------------------|
E|-----------------------8--------------------------------------------------|
B|------------------8-10---10-10/12-10--------------------------------------|
G|-----------5--7/9--------------------12-9------------------------12-------|
D|-------5-7--------------------------------12-10-12/14~~-14-14-14----14-14-|
A|---5-7--------------------------------------------------------------------|
E|-7------------------------------------------------------------------------|
E|-----------------------------------------------------------------|
B|-----------10-12-12-10-10-10-8-10-------5------------------------|
G|------------------------------------5-7---7-5-4------------------|
D|-14-14-14-------------------------7-------------7----------------|
A|--------------------------------------------------7--------------|
E|-----------------------------------------------------------------|
E|-5-5--7-x-8--5/3--3-3-x-3-3-x------------------------------------|
B|-5-5--5-x-5--5/3--3-3-x-3-3-x------------------------------------|
G|-------------------------------5--4p5-5--------------------------|
D|----------------------------------------7-5----------------------|
A|--------------------------------------------7-5------------------|
E|------------------------------------------------5-7--------------|
LA ROLA*-*-*-----*-*-*-*-*-----*-*-*-*-*-*-*-----*-*-*-*-*-----*-*-*---
intro
Am - C - G Am- C - G
Am
Mentira mi vida
C G
lo que se da y no se mira
Am
Mentira fundida
C G
con miel que evaporo mi piel
Am
Mentira prohibida
C G
Debilidad que me domina
Am
Mentira mi vida
C G
No quiero mas mentiiiiiiiiirte
G
Amor
B7
Solamente encontre
A B7
El necio precio de volverte
Am
Mentira vendida
C G
Moralidad que me intoxica
Am
Mentiras escondida
C G Am
Flagelo que mi corazon no olvida mentira.
C G
Las tentaciones destructivas
Am
Mentira medida
C G
No quiero mas mentirte
G
Amor
B7
Solamente me perdi
A B7
Regreso para devolverte
C B7 A B7 C B7 E
Mi corazon late por ti dentro de mi
C B7 A B7 C B7 E
Mi corazon nunca dejo tu corazon
Am
Mentira servida
C G
El vino y pan de cada dia
Am
Mentira atrevida
C G
bolero de mi corazon
Am
Amarga saliva
C G
Sabor a culpa y agonia
Am
Mentira divina
C G
No quiero mas mentiiiiirteee
G
Amor
B7
Solamente encontre
A B7 Am
El necio precio de volverme a ver
(solo)
Am C G ---- x 4
G
Amor
B7
Solamente encontre
A B7
El necio precio de volverte
C B7 A B7 C B7 E
Mi corazon late por ti dentro de mi... y siempre busco la verdad
C B7 A B7 C B7 E
Mi corazon nunca dejo tu corazon...
C B7 A B7 C B7 E
Mi corazon late por ti dentro de mi... y busco siempre la verdad
Mi corazon nunca se fueeeeehEEEE.
APLAUSOS.......!
!
!
dedicado a mi amor BRENDA




Ваше мнение



Капча