Cielo Market - La Ley
por Largallagher

Acordes usados:
E A D g b e
A 0 0 2 2 2 0
A? 0 0 2 2 0 0
G 3 2 0 0 3 3
D 0 0 0 2 3 2
Am 0 0 2 2 1 0
A2 5 7 7 x x x
A?2 x 7 7 4 x x
Am2 x 7 7 5 x x
D2 x 5 7 7 x x

x= No toques las cuerdas sесаlаdаs con este simbolo.
X= Opacar las cuerdas con la mano.

Intro:
A G D A
e----------------------3-------------2-------------------|
b----2-----2-----3-------3-------3-----3-----2-----2-----|
g------2-----2-----0-------0---2---2-----2-----2-----2---|
D--------2-----------0-------0-------------2-----2-----2-|
A--0-----------2-----------------------------------------|
E--------------------------------------------------------|

A G D A
e----------------------3-------------2--------|
b----2-----2-----3-------3-------3-----3----2-|
g------2-----2-----0-------0---2---2-----2--2-|
D--------2-----------0-------0--------------2-|
A--0-----------2------------------------------|
E---------------------------------------------|

Parte 2da. del intro:

A2 A?2 Am2 D2 A2 A?2 Am2 D2
e-------------------------|------------------------------------|
b-------------------------|------------------------------------|
g---------4--4-4-5--5-5-7-|--------------------4--4-4-5--5-5-7-|
D--7--7-7-7--7-7-7--7-7-7-|----------------7-7-7--7-7-7--7-7-7-|
A--7--7-7-7--7-7-7--7-7-5-|-0-5-3----------7-7-7--7-7-7--7-7-5-|
E--5--5-5-----------------|-------0-3-4-5--5-5-----------------|

En el coro tambien se toca esta 2da. parte del intro.Tocalo
en el coro cuantas veces aparezca.

En el solo intermedio se repite la 1a. parte del intro.
Tocala cuantas veces aparezca.

Al final tocas esto:

e---------------------------|
b---------------------------|
g------7--------7----7-7----|
D--7-7-7----7-7-7----7-7-7--|
A--7-7-5----7-7-5----5-5-7--|
E--5-5------5-5----------5--|




Ваше мнение



Капча