intro:

G Am
1|------3-----3-----3--------3-----3-----3—|-5-4-3----5---4--3----
2|----3---3-----3----------3---3-----3-----|--------4----------4--
3|--4-------4-----4------4-------4-----4---|----------------------
4|-5--------------------5------------------|----------------------
5|-----------------------------------------|----------------------
6|-----------------------------------------|----------------------

G Am
1|-------3-----3-----3--------3------3-----3-|-3-3/5-5/7-7/8--5/7--7/8---
2|-----3---3-----3----------3---3------3-----|---------------------------
3|---4-------4-----4------4-------4-----4----|---------------------------
4|-5--------------------5--------------------|---------------------------
5|-------------------------------------------|---------------------------
6|-------------------------------------------|---------------------------

C G
1|-----------------|-------------
2|--8---8---8---8--|-3—-3--3—-3--
3|--9—--9---9---9--|-4—-4--4—-4--
4|-10--10—-10—-10--|-5—-5--5—-5--
5|-10--10—-10—-10--|-5—-5--5—-5--
6|-----------------|-------------

G
Luces Que Llegan Nubes Que Еsрнаn
Am
Esta Ciudad - Nuestra Ciudad
G
Mensaje Claro, Pruebas Que Quitan
Am
Escepticidad En Nuestra Ciudad
C D
Esta Ciudad Abre Sus Brazos Al Don
G Am
De Este Соrаzуn - Nuestro Соrаzуn.

G Am

C G
Esta Ciudad Abre Sus Brazos Al Corazon

G Am
1|------3-----3-----3--------3-----3-----3—|-5-4-3----5---4--3----
2|----3---3-----3----------3---3-----3-----|--------4----------4--
3|--4-------4-----4------4-------4-----4---|----------------------
4|-5--------------------5------------------|----------------------
5|-----------------------------------------|----------------------
6|-----------------------------------------|----------------------

G Am
1|-------3-----3-----3--------3------3-----3-|-3-3/5-5/7-7/8--5/7--7/8---
2|-----3---3-----3----------3---3------3-----|---------------------------
3|---4-------4-----4------4-------4-----4----|---------------------------
4|-5--------------------5--------------------|---------------------------
5|-------------------------------------------|---------------------------
6|-------------------------------------------|---------------------------

C G
1|-----------------|-------------
2|--8---8---8---8--|-3—-3--3—-3--
3|--9—--9---9---9--|-4—-4--4—-4--
4|-10--10—-10—-10--|-5—-5--5—-5--
5|-10--10—-10—-10--|-5—-5--5—-5--
6|-----------------|-------------

G
Seres Que Vuelan Angeles Quedan
Am
Para Evacuar - Esta Ciudad
G
Miren El Signo, Sigan El Ritmo
Am
Para Viajar, Para Volar
C D
Esta Ciudad Abre Sus Brazos Al Don
G Am
De Este Соrаzуn - Nuestro Соrаzуn.

(Bon Voyage)
G Am
1|------3-----3-----3--------3-----3-----3—|-5-4-3----5---4--3----
2|----3---3-----3----------3---3-----3-----|--------4----------4--
3|--4-------4-----4------4-------4-----4---|----------------------
4|-5--------------------5------------------|----------------------
5|-----------------------------------------|----------------------
6|-----------------------------------------|----------------------
G Am
1|-------3-----3-----3--------3------3-----3-|-3-3/5-5/7-7/8--5/7--7/8---
2|-----3---3-----3----------3---3------3-----|---------------------------
3|---4-------4-----4------4-------4-----4----|---------------------------
4|-5--------------------5--------------------|---------------------------
5|-------------------------------------------|---------------------------
6|-------------------------------------------|---------------------------
C G
1|-----------------|-------------
2|--8---8---8---8--|-3—-3--3—-3--
3|--9—--9---9---9--|-4—-4--4—-4--
4|-10--10—-10—-10--|-5—-5--5—-5--
5|-10--10—-10—-10--|-5—-5--5—-5--
6|-----------------|-------------

C G
Esta Ciudad, Abre Sus Brazos A Un Соrаzуn.
C G
Oye Ciudad, Abre Tus Ojos A Un Соrаzуn.

Solo (2:48):

G Am G Am C D
1|------------------------------------|---3---3---3-|---5---5---5---5--
2|-3/12/7—-7—-9h----3/12/7—-9—-5—-3---|-5---5---5---|-5---5---5---5----
3|----------------------------------4-|-------------|------------------

G Am
De Este Соrаzуn - Nuestro Соrаzуn
G Am
1|------3-----3-----3--------3-----3-----3—|-5-4-3----5---4--3----
2|----3---3-----3----------3---3-----3-----|--------4----------4--
3|--4-------4-----4------4-------4-----4---|----------------------
4|-5--------------------5------------------|----------------------
5|-----------------------------------------|----------------------
6|-----------------------------------------|----------------------
G Am
1|-------3-----3-----3--------3------3-----3-|-3-3/5-5/7-7/8--5/7--7/8---
2|-----3---3-----3----------3---3------3-----|---------------------------
3|---4-------4-----4------4-------4-----4----|---------------------------
4|-5--------------------5--------------------|---------------------------
5|-------------------------------------------|---------------------------
6|-------------------------------------------|---------------------------

(se repite, casi eternamente)

Bon Voyage
Un Bon Voyage
Bon Voyage....




Ваше мнение



Капча