E: Wed, 06 May 1998 20:15:58 -0600
From: Nicolas Castilleja
Subject: c/cuca/el_son_del_dolor.crd
Interprete: CUCA
Cancion:"El son del dolor"
Album:La invacion de los blotidos
Key: H-hammer-on
/-slide
P-pull-off
^-half bend
^^-full bend
~ vibrato
^ ^ ^ ^
El primer riff se toca con este ritmo: | | | | | | | | | | (Se toca muy rapido)
V v v v v v
1er.RIFF
(Se toca el ritmo completo una vez en cada pisada, y luego se repite,
En total se toca 4 veces, dos en cada pisada pero van intercaladas una y una)
E|---6------------|---4----------|
B|---7------------|---6----------|
G|---6------------|---6----------|
D|----------------|--------------|
A|----------------|--------------|
E|----------------|--------------|
2do RIFF
OohhЎ
E|--------6--6---11-11---1--|--4-4---5-4------|
B|--------7--7---12-12---3--|--6-6------------|
G|---6-6---------11-11---1--|--6-6---------6--|
D|--------------------------|-----------------|
A|--------------------------|-----------------|
E|--------------------------|-----------------|
(El riff no.2 se toca 4 veces)
En esta parte entra la voz
3er RIFF
E|---6--7-7---9---6--4---|
B|---7--7-7---9---6--6---|
G|---6--6-6-------6--6---|
D|-----------------------|
A|-----------------------|
E|-----------------------|
4to RIFF
Este riff es un pequeсo requinto que va despues de el primer riff en algunas
Partes, justo cuando termina el ritmo.
E|---------------------|
B|---------------------|
G|---------------------|
D|--3-2-0--------------|
A|--------3-2-0-5~-----|
E|---------------------|
5to RIFF (final)
E|--6-----6------|
B|---7-----7~~---|
G|----6----------|
D|---------------|
A|---------------|
E|---------------|
Solo:
E|-----------------------------------------------------------------------|
B|-----------------------------------------------------------------------|
G|-----------------------------------------------------------------------|
D|--6~-4-3--4--6--4--6--4-----6~-4-3--3-4---3h4p3-1~--6~--4--3--4--------|
A|-----------------------------------------------------------------------|
E|-----------------------------------------------------------------------|
E|---------------------------------------12-14-14---12-14-14---12-14-14--|
B|---------------------------------------12-14-14---12-14-14---12-14-14--|
G|-----------------------------------------------------------------------|
D|--9--7--9--7--6------6--9--3--6~---------------------------------------|
A|-----------------------------------------------------------------------|
E|-----------------------------------------------------------------------|
E|--12-14-14---16^--14h16p14--16^-----16---------------------------------|
B|--12-14-14----------------------16^-----16--14/12----------------------|
G|-----------------------------------------------------------------------|
D|-----------------------------------------------------------------------|
A|-----------------------------------------------------------------------|
E|-----------------------------------------------------------------------|
E|--12-14-14---12-14-14---12-14-14---12-14-14---12-14-14-----------------|
B|--12-14-14---12-14-14---12-14-14---12-14-14---12-14-14-----------------|
G|-----------------------------------------------------------------------|
D|-----------------------------------------------------------------------|
A|-----------------------------------------------------------------------|
E|-----------------------------------------------------------------------|
E|---16--14/13---16h13p16---14h16p14--16--16--16--16----14--14--14-------|
B|-----------------------------------------------------------------------|
G|-----------------------------------------------------------------------|
D|-----------------------------------------------------------------------|
A|-----------------------------------------------------------------------|
E|-----------------------------------------------------------------------|
Letra:
RIFF 1
OohhЎ
RIFF 2
RIFF 3(se repite 8 veces durante la letra)
Tu sabes que yo me muero por ti mi vida yo me muero por ti mi amor
Que necesito respiraciуn de voca a voca porque en tu voca naciу mi dolor,
Yo quiero que me mates con un beso y otro beso para resusitar
Yo quiero que me des otro abrazo y en tus brazos yo quiero reventar.
RIFF 1
OohhЎ
Que me muero por ti mi vida yo me muero por ti mi amor.
OohhЎ
Que me matas y me exitas con tanto dolor. RIFF 4
RIFF 1
PrrrrahuЎ
RIFF 2
RIFF 3
Tu sabes que me apasiona tu persona y esa sona que te quiero morder
Tu sabes que me vuelves loco con tus gritos y tus araсasos de mujer
Y cuando fumas y quemas y dibujas patrones sobre mi,
Y la manera que amas entre llamas y me consumo pero ya lo vivi
Que mбs da.
RIFF 1
OohhЎ
Que me muero por ti mi vida yo me muero por ti mi amor,
OohЎ
Que me matas y me exitas con tanto dolor RIFF 4
RIFF 1
HiйremeЎ
SOLO...
RIFF 2 (Esta es la unica parte de la canciуn donde el 2do rifff
Se toca acompaсando a la voz)
Tu sabes que yo me muero por ti mi vida yo me muero por ti mi amor
Que nesecito respiracion de voca a voca porque en tu voca nacio mi dolor.
RIFF 3
OohhЎ
Que me muero por ti mi vida yo me muero por ti mi amor
OohhЎ
Que me matas y me exitas con tanto dolor, yo me muero por ti mi vida
Yo me muero por ti mi amor, oohhЎ que me matas y me exitas
Con tanto dolor RIFF 4
Hiйreme mбs que me hace tu maldad feliz RIFF 5
Pues ahн esta la canciуn, cualquier duda o comentario es bienvenido, pueden escribirme a
[email protected]
Se despide su cuate Nico Castilleja.





Ваше мнение



Капча