From: Leonardo Calva Medinilla
= CUCA =
--------
" Alcohol y Rocanrol "
INTRO
-----
E |---------------------| |-----------------|---------------|
B |---5-3---------------| |---------------3-|-------------5-|
G |---4-3--------p------| |-4-4-4-4-4-4-4-4-|-4-4-4-4-4-4-6-|
D |-----0-------2^0-----| |-----------------|---------------|
A |---------0-1-----1-0-| |-----------------|---------------|
E |-0-----0-------------| |-----------------|---------------|
VERSO
-----
P.M. P.M. 2x
E |-------|-------------|-------|-------------|-------|
B |-3-----|-------------|-------|-------------|-------|
G |-4-3-2-|-------------|-------|-------------|-------|
D |---3-2-|-------------|-3-3-2-|-------------|-5-5-3-|
A |-------|-5-5-5-5-5-x-|-3-3-2-|-5-5-5-5-5-x-|-5-5-3-|
E |-------|-3-3-3-3-3-x-|-------|-3-3-3-3-3-x-|-------|
2x
E |-------------|---------1-1-|
B |-------------|---------1-1-|
G |-------------|---------2-2-|
D |-3-x-x-x-x-3-|-x-x-x-x-----|
A |-3-x-x-x-x-3-|-x-x-x-x-----|
E |-1-x-x-x-x-1-|-x-x-x-x-----|
CORO
----
P.M.
E |-----------------|-----------------------|------------|
B |-----------------|------h----------------|--h---------|
G |-----------------|-----5^7-5-x-5-7/12\-x-|-5^7-5-7/12-|
D |-5-------7----7\-|-----5^7-5-x-5-7/12\-x-|-5^7-5-7/12-|
A |-3-------5----5\-|-----------------------|------------|
E |-----------------|-3-3-------------------|------------|
E |----------------|
B |----------------|
G |----------------|
D |-5---7----------|
A |-3---5---5-6-7--|
E |---------3-4-5--|
Solamente es lo principal, pero de algo les a de servir...
Comentarios, preguntas, etc.. a : [email protected]
[email protected]





Ваше мнение



Капча