The Ballad of Jayne
Intro C C C
|----------------------------------------------------------------------------------------------
|--------3----------------1--------------3-------1--------------3-------1---1^0------------
|-----------0-------------0-----------------0----0-----------------0----0--------0-----------
|-------------------------2-----------------------2----------------------2--------------------
|--3/5-------------------3--------3/5-----------3---------3/5----------3--------------------
|----------------------------------------------------------------------------------------------
Riff 1 (R1)
|----------3----------------------------------------------------3-----------------------------------------------
|------------------3--------------------1^0----------------------3---------------------3-\-1---1^0----------
|---------------------0--------------0-------0-----------------------0------------------0--------------0------
|-------0---------------0---------2------------2------------0----------0---------------4-\-2-----------------
|----2-------------------------3------------------3-------2--------------------3-/-5---5-\-3-----------------
|--3----------------------------------------------------3-------------------------------------------------------
Rhythm Fill 1 (RF1) Rhythm Fill 2 (RF2)
|-----------3-----------------3-------------- |--------2---------2-----------------------------
|-------------3-------------3---3------------ |------3---------3----------1---------1-----------
|--------0------0--------0--------0---------- |---2---------2-----------0---------0--------------
|------0----------0----2------------2-------- |-0---------0-----------2---------2----------------
|---2----------------3------------------------ |----------------------3--------3----------------
|-3-------------------------------------------- |----------------------------------------------

Rhythm Fill 3 (RF3) Rhythm Fill 4 (RF4)
D D D D D D D
|--------3------------------3-------- |-2---2---3---2---2---2---3---2-----2-----------------
|----------3------------------3------ |-3---3---3---3---3---3---3---3-----3-----------------
|------------0-----------0------0---- |-2--2---2---2---2---2---2---2-----2------------------
|-----0--------0------2-----------0-- |-0--0---0---0---0---0---0---0-----0------------------
|---2---------------3----------------- |---------------------------------------------------------
|-3------------------------------------ |---------------------------------------------------------

G C G Riff 1
She was always something special
G C G Riff 1
Diamond shining bright in the rain
G C G Riff 1
Everybody dreams of angels
Rhythm Fill 2
No one will ever know, how much I loved ya so
CHORUS
Rhythm Fill 3 Repeat RF3
Now it all seems funny, kinda like a dream
RF3 RF3
Things ain't always what they seem
RF3 RF3 RF4 Intro
What a shame... what happened to Jayne
G C G Riff 1
You were always on my mind
G C G Riff 1
Childlike summer days in the sun
G C G Riff 1
Slowly wishes turn to sadness
G C G Riff 1
Time don't heal a broken gun
RF2
I wish I'd never let you go
RF2
Hear me now, cause I want you to know

CHORUS with Rhythm Fills
Intro
Solo
Intro

G C G Riff 1
Now she's breaking hearts in heaven
G C G
Shining bright, in the sky
G C G
I still hear her voice in the wind
G C G
I still think of you in the night
Oh yeah.....
Well I guess she'll never know
How much I need her so
CHORUS
Tabbed by zom_bie ( Tom Barnett )
Comments or questions email [email protected]
I know its not exact and I couldn’t figure out some of the fills or the solo , but this is my first tab so give me a break ;oю





Ваше мнение



Капча