[email protected]
Kyuss - Writhe
Tuning: C F A# D# G C

RIFF A x4 RIFF B x4
|-----------||------------------------------------||
|-----------||------------------------------------||
|-----------||------------------------------------||
|---------2-||----4-4----4----4-4---4----7s8--7s8-||
|-2-2--2--2-||----4-4----4----4-4---4----7s8--7s8-||
|-0-0--0--4-||-0--2-2--0-2--0-2-2-0-2-0--5s6--5s6-||
RIFF C x8
|------------------------------------||
|------------------------------------||
|------------------------------------||
|----4-4----4----4-4---4----7s8--7s8-||
|----4-4----4----4-4---4----7s8--7s8-||
|-0--2-2--0-2--0-2-2-0-2-0--5s6--5s6-||
pm.... pm.........
CHORUS:
|----------------------------------------------------------------------|
|----------------------------------------------------------------------|
|-7--7--7-7--7-7-7--7s9--9--9-9--9-9-9--9s11--11--11-11---11-11-11--11-|
|-7--7--7-7--7-7-7--7s9--9--9-9--9-9-9--9s11--11--11-11---11-11-11--11-|
|-5--5--5-5--5-5-5--5s7--7--7-7--7-7-7--7s-9---9---9--9----9--9--9---9-|
|-5--5--5-5--5-5-5--5s7--7--7-7--7-7-7--7s-9---9---9--9----9--9--9---9-|
|----------------------------------------------------------------------|
|----------------------------------------------------------------------|
|-11s14--14-14-14s12--11-11--11-11-11--11-11---------------------------|
|-11s14--14-14-14s12--11-11--11-11-11--11-11---------------------------|
|--9s12--12-12-12s-9---9--9---9--9--9---9--9---------------------------|
|--9s12--12-12-12s-9---9--9---9--9--9---9--9---------------------------|
|----------------------------------------------------------------------|
|----------------------------------------------------------------------|
|-7--7--7-7--7-7-7--7s9--9--9-9--9-9-9--9s11--11--11-11---11-11-11--11-|
|-7--7--7-7--7-7-7--7s9--9--9-9--9-9-9--9s11--11--11-11---11-11-11--11-|
|-5--5--5-5--5-5-5--5s7--7--7-7--7-7-7--7s-9---9---9--9----9--9--9---9-|
|-5--5--5-5--5-5-5--5s7--7--7-7--7-7-7--7s-9---9---9--9----9--9--9---9-|
|----------------------------------------------------------------------|
|----------------------------------------------------------------------|
|----------------------------------------------------------------------|
|----------------------------------------------------------------------|
|---------7h9-7-9------------------------------------------------------|
|-5s7-7h9--------------------------------------------------------------|
PLAY RIFF A x4
PLAY RIFF B x8
|---------------------------------------------------|
|---------------------------------------------------|
|---------------------------------------------------|
|--------------------14~~--11h12p11-----------------|
|->-s-9~~~--11h12p12----------------12~~--9~~-------|
|---------------------------------------------------|
|---------------------------------------------------|
|---------------------------------------------------|
|---------------------------------------------------|
|---------------------11-12~-11~~-11h12p11----------|
|-9-9-11~~-12-11-12~~----------------------12-9~~---|
|---------------------------------------------------|
x2
|--------------------------------------------------||
|-----------10-------10----------------------------||
|-11-11-11--11b13r11-11b13r11--11-9-11~~-----------||
|--------------------------------------------------||
|--------------------------------------------------||
|--------------------------------------------------||
|------------------------------------------------------------------|
|-----------10-----------------------------------------------------|
|-11-11-11--11b13r11--11~~~--9h11p9------9h11p9------9h11p9--------|
|-----------------------------------11~~--------11~~--------11-----|
|------------------------------------------------------------------|
|------------------------------------------------------------------|
|------------------------------------------------------------------|
|------------------------------------------------------------------|
|----------14~~----------14~~----------14~~----------14~~----------|
|-11h12p11------11h12p11------11h12p11------11h12p11---------------|
|------------------------------------------------------------------|
|------------------------------------------------------------------|
|------------------------------------------------------------------|
|------------------------------------------------------------------|
|------------------------------------------------------------------|
|-11h12-11~~-11h12-11~~~~--14-14h16-16-16--------------------------|
|-----------------------------------------12h14-14-----------------|
|--------------------------------------------------12h14-14-14~~~~-|
|------------------------------------------------------------------|
|------------------------------------------------------------------|
|------------------------------------------------------------------|
|--------4----------2h4-4-4b6r4--------4---------------------------|
|-2-2--2-4------2h4-------------2-2--2-4---------------------------|
|-0-0--0-2--0h2-----------------0-0--0-2--0h2-0h2-0h2-0h2-0h2-0h2--|
|------------------------------------------------------------------|
|------------------------------------------------------------------|
|-----------2-4h5r4-2---------2h4-2~-------------------------------|
|--------4------------4~--2h4---------------4----4---4---4---------|
|-2-2--2-4---------------------------2-2--2-4----4---4---4---------|
|-0-0--0-2---------------------------0-0--0-2--0-2---0h2-0h2-------|
PLAY RIFF A x3
|------------------------------------------------------------------|
|------------------------------------------------------------------|
|------------------------------------------------------------------|
|---------2--2-2-2-2-2-2-2-2-2-2-2-2-2-2-2-2-2-2-2-2-2-2-2-2-2-2---|
|-2-2--2--2--2-2-2-2-2-2-2-2-2-2-2-2-2-2-2-2-2-2-2-2-2-2-2-2-2-2---|
|-0-0--0--4--4-4-4-4-4-4-4-4-4-4-4-4-4-4-4-4-4-4-4-4-4-4-4-4-4-4---|
pm.......................................
PLAY CHORUS RIFF x1
x3
|-----------------||
|-----------------||
|-----------------||
|-4-----4---4---4-||
|-4-----4---4---4-||
|-0h2-0-2-0-2-0-2-||

Tablature Key:
|------------- hammer on to 3 |-------------
|--2h3p2------ then pull off |---x-x------- muffled string
|------------- back to 2 |---x-x-------
|------------- pluck 5 then |-------------
|--5b7r5------ bend up until |------------- palm muting
|------------- pitch is equal |-------------
to 7, release to 5 pm..........
|------------- slide along string in |------------- slide to second
|------4s->--- direction of arrow |---5-s-7----- note from first
|------------- |-------------
|-------------
|------5~~~~~- string vibrato
|-------------




Ваше мнение



Капча