[email protected]
Kyuss - Whitewater
Tuning: C F A# D# G C
[00:10]
|--------------------------------------------------------------------------|
|--------------------------------------------------------------------------|
|--------------------------------------------------------------------------|
|--------------------------------------------------------------------------|
|------------10----10-s-12~~~------12-s-8----8----8-s-10~~~----------------|
|-8-s-10--10----12--------------12---------8---8---------------------------|
(variation)
|--------------------------------------------------------------------------|
|--------------------------------------------------------------------------|
|--------------------------------------------------------------------------|
|----------------------------------14-s-10----10---10-s-12~~~--------------|
|------------10----10-s-12~~~---12----------8----8-------------------------|
|-8-s-10--10----12---------------------------------------------------------|
[00:58]
|---------|
|---------|
|----5--5-|
|----5--5-|
|-0--3--3-|
|---------|
|--------------------------------------------------------------------------|
|--------------------------------------------------------------------------|
|--------------------------------5h7----------------------------5----------|
|-----5h7----------5h7------5h7--0-------5h7----------5h7-------5--5-------|
|-0-0-0----0-0-0-0-0----0-0-0--------0-0-0----0-0-0-0-0----0-0--3--5-------|
|------------------------------------------------------------------3-------|
|--------------------------------------------------------------------------|
|--------------------------------------------------------------------------|
|--------------------------------5------------------------------5----------|
|-----5h7----------5h7------5h7--0h7-----5h7----------5h7-------5--5-------|
|-0-0-0----0-0-0-0-0----0-0-0--------0-0-0----0-0-0-0-0----0-0--3--5-------|
|------------------------------------------------------------------3-------|
[01:21]
|--------------------------------------------|
|--------------------------------------------|
|--------------------------------------------|
|-5-s-7-7-7-7-7-7-7-7-s-9-9-9-9-9-9h10-10-10-|
|-0-----0-0-0-0-0-0-0-----0-0-0-0-0-----0--0-|
|--------------------------------------------|
|--------------------------------------------|
|--------------------------------------------|
|----------------------------5h7-5-----------|
|-----5h7----------5h7-------5h7-5-----------|
|-0-0-0----0-0-0-0-0----0-0------------------|
|--------------------------------------------|

[01:42]
|---------------------------------------------------|
|---------------------------------------------------|
|-5--5-5--------------5-----------5h7-7-7b9r7-5h7p5-|
|-5--5-5-5----5---5h7-5---5h7-7-7-5h7-7-7b9r7-5h7p5-|
|-3--3-3-5----5---5h7-----5h7-7-7-------------------|
|--------3--0-3-0-----------------------------------|
|---------------------------------------------------|
|---------------------------------------------------|
|-5--5-5--------7p5----5h7-7-7-5h7-7p5-5h7-7p5------|
|-5--5-5-5----5-7p5-7--5h7-7-7-5h7-7p5-5h7-7p5-7----|
|-3--3-3-5----5-----7--------------------------7----|
|--------3--0-3-------------------------------------|
|---------------------------------------------------|
|---------------------------------------------------|
|-5--5-5--------------5-----------5h7-7-7b9r7-5h7p5-|
|-5--5-5-5----5---5h7-5---5h7-7-7-5h7-7-7b9r7-5h7p5-|
|-3--3-3-5----5---5h7-----5h7-7-7-------------------|
|--------3--0-3-0-----------------------------------|
|---------------------------------------------------|
|---------------------------------------------------|
|-5--5-5---------7p5----------------------------5---|
|-5--5-5-5--5-5--7p5---7------------------------5-5-|
|-3--3-3-5--5-5------7-7------------------------3-5-|
|--------3--3-3--------5--------------------------3-|

[03:12]
|-------|
|-------|
|-------|
|-5--7--|
|-5--7--|
|-3--5--|
(variation)
|------------------------------|------------------------------|
|------------------------------|------------------------------|
|-------5-----4-------4--------|-------5-7-5---------4--------|
|-5h7-7---7-7-5--5-5--5--5-5-5-|-5h7-7-------5--5-5--5--5-5-5-|
|------------------------------|------------------------------|
|------------------------------|------------------------------|
[03:59]
|--------------------------------------------------------------------------|
|--------------------------------------------------------------------------|
|-9-s-14----14----14----14----14--14-14-----12----12----12---11-11----11---|
|--------14----14----14----14-----------14----12----12-------------12------|
|--------------------------------------------------------------------------|
|--------------------------------------------------------------------------|
|--------------------------------------------|
|--------------------------------------------|
|-12-11--14-12--11h12p11-----11--------------|
|-------------------------14----14--12-14~~~-|
|--------------------------------------------|
|--------------------------------------------|
x2
|--------------------------------------||
|--------------------------------------||
|--------------------------------------||
|-11-11h12p11--------11-11h12p11-------||
|-------------10~~~--------------12~~~-||
|--------------------------------------||

|--------------------------------------------------------------------------|
|-----------------------------------------------15-------------------------|
|-14--12-11-12-11--14-12--11h12p11----11-12-11-----12-11--14-12--11--------|
|----------------------------------14--------------------------------------|
|--------------------------------------------------------------------------|
|--------------------------------------------------------------------------|
|--------------------------------------------------------------------------|
|-15------------------15---------------------------------------------------|
|----12-11--14-12-11-----12-11--14-12-11--11h12p11-----11------------------|
|---------------------------------------------------14----14-12-14~~~------|
|--------------------------------------------------------------------------|
|--------------------------------------------------------------------------|
|-----------------------|
|-----------------------|
|-------12--12-s-14~~~--|
|-12-14-----------------|
|-----------------------|
|-----------------------|
x2
|-15----12-----12----12----12---------15-----12-----12-----12----12-||
|-12-12----12--10-10----10-----12-12--12--12----12--10--10----10----||
|-------------------------------------------------------------------||
|-------------------------------------------------------------------||
|-------------------------------------------------------------------||
|-------------------------------------------------------------------||
||--------------------------------------------------
||-10--10-10--10-10--10-10-10-10-10-10-10--10-s-12--
||--------------------------------------------------
||--------------------------------------------------
||--------------------------------------------------
||--------------------------------------------------
----------------------------------------------------
--12--12-12--12-12--12-12-12-12-12-12-12--12-s-13---
----------------------------------------------------
----------------------------------------------------
----------------------------------------------------
----------------------------------------------------
----------------------------------------------------
--13--13-13--13-13--13-13-13-13-13-13-13--13-s-15---
----------------------------------------------------
----------------------------------------------------
----------------------------------------------------
----------------------------------------------------
2x
---------------------------------------------------||
--15--15-15--15-15--15-15-15-15-15-15-15--15-------||
---------------------------------------------------||
---------------------------------------------------||
---------------------------------------------------||
---------------------------------------------------||
|--0--0--0--0--0--0--0--0--0--0--0--0--0--0--0--0--|
|-17-17-17-17-17-17-17-17-17-17-17-17-17-17-17-17--|
|-14-14-14-14-14-14-14-14-14-14-14-14-14-14-14-14--|
|--------------------------------------------------|
|--------------------------------------------------|
|--------------------------------------------------|
repeat
|--0--0--0--0--0--0--0--0--0--0--0--0--0--0--0--0-||
|-17-17-17-15-15-15-17-17-17-15-15-15-17-17-15-15-||
|-14-14-14-14-14-14-14-14-14-14-14-14-14-14-14-14-||
|-------------------------------------------------||
|-------------------------------------------------||
|-------------------------------------------------||
|----------------------|
|----------------------|
|-14-14-14-14-14~~~~~~-|
|----------------------|
|----------------------|
|----------------------|
[05:51]
|------------------------------------------------------|
|------------------------------------------------------|
|-14--12--11-12-11--14--12--11h12p11----11-12--11~~~---|
|------------------------------------14----------------|
|------------------------------------------------------|
|------------------------------------------------------|
|------------------------------------------------------|
|-12-13--15-13--12h13p12-------------------------------|
|------------------------14--12-12--11~~--12-12--11~~--|
|------------------------------------------------------|
|------------------------------------------------------|
|------------------------------------------------------|
|-------------------------------|
|-------------------------------|
|-12-12--11~~---9--9-9h11--9~~~-|
|-------------------------------|
|-------------------------------|
|-------------------------------|
|--------------------------------------------------------------------------|
|-17--17-17-18-17---15-15-15-s-13-13-13-12-13-15-13-12-13-13-13--13-s-15~~-|
|--------------------------------------------------------------------------|
|--------------------------------------------------------------------------|
|--------------------------------------------------------------------------|
|--------------------------------------------------------------------------|
|-------------------15--12-13-12--15-13-12--15-13-12--15-13-12-------------|
|-15--15-s-17~~~-----------------------------------------------------------|
|--------------------------------------------------------------------------|
|--------------------------------------------------------------------------|
|--------------------------------------------------------------------------|
|--------------------------------------------------------------------------|
|-13-12-13--13-s-15--------------------------------------------------------|
|----------------------12-12-12-10-12-10~~~--12-12-12-10~~~-12-12-12-10~~~-|
|--------------------------------------------------------------------------|
|--------------------------------------------------------------------------|
|--------------------------------------------------------------------------|
|--------------------------------------------------------------------------|
|--------------------------------------------------------------------------|
|-12-12-12-10~~~-----------------------------------------------------------|
|-----------------12--14--14-14--14b16r14---12--14--14-14--14b16r14--------|
|--------------------------------------------------------------------------|
|--------------------------------------------------------------------------|
|--------------------------------------------------------------------------|
|--------------------------------------------------------------------------|
|--------------------------------------------------------------------------|
|-12--14--14-14--14b16r14---12--14-14-14--14b16--14~~~--14~~-x--14~~-------|
|--------------------------------------------------------------------------|
|--------------------------------------------------------------------------|
|--------------------------------------------------------------------------|
x3 x4
|-------||----------------------------||-----------------------------------|
|-------||----------------------------||-----------------------------------|
|-14~~~-||-------5------5h7-7-5h7-----||-7-s-9~~~--------------------------|
|-------||-5h7-7---7p5--5---5-----5-5-||-5-s-7~~~--------------------------|
|-------||----------------------------||-----------------------------------|
|-------||----------------------------||-----------------------------------|

Tablature Key:
|------------- hammer on to 3 |-------------
|--2h3p2------ then pull off |---x-x------- muffled string
|------------- back to 2 |---x-x-------
|------------- pluck 5 then |-------------
|--5b7r5------ bend up until |------------- palm muting
|------------- pitch is equal |-------------
to 7, release to 5 pm..........
|------------- slide along string in |------------- slide to second
|------4s->--- direction of arrow |---5-s-7----- note from first
|------------- |-------------
|-------------
|------5~~~~~- string vibrato
|-------------




Ваше мнение



Капча