[email protected]
Kyuss - Tangy Zizzle
Tuning: C F A# D# G C
[00:09]
|--------------------------------------------------------------------------|
|--------------------------------------------------------------------------|
|--------------------------------------------------------------------------|
|-3--3-3-3-3--3--3-3-3-3--6--6-6-6-6--6--6-6-6-6---------------------------|
|-3--3-3-3-3--3--3-3-3-3--5--5-5-5-5--6--6-6-6-6---------------------------|
|-1--1-1-1-1--1--1-1-1-1--4--4-4-4-4--4--4-4-4-4---------------------------|
[01:15]
|--------------------------------------------------------------------------|
|--------------------------------------------------------------------------|
|-------------10-10--------------------------------------------------------|
|-3---3-3-3-s-10-10-----8-8-8-8-8-8--7-7-7-7-7-7---------------------------|
|-3---3-3-3-s--8--8-----6-6-6-6-6-6--5-5-5-5-5-5---------------------------|
|-1---1-1-1-s--8--8--------------------------------------------------------|
Tablature Key:
|------------- hammer on to 3 |-------------
|--2h3p2------ then pull off |---x-x------- muffled string
|------------- back to 2 |---x-x-------
|------------- pluck 5 then |-------------
|--5b7r5------ bend up until |------------- palm muting
|------------- pitch is equal |-------------
to 7, release to 5 pm..........
|------------- slide along string in |------------- slide to second
|------4s->--- direction of arrow |---5-s-7----- note from first
|------------- |-------------
|-------------
|------5~~~~~- string vibrato
|-------------




Ваше мнение



Капча