God Damn, Son of a Bitch – Kyuss
From the album Wretch
Tabbed by Matt WV

Pick hand muting – P.M.===
Slide down -
Vibrato – v

Tuning C F A# D# G c

Verse
c |----------------------------------------------------------|
G |----------------------------------------------------------|
D#|---------9v------------7v--------------------------7v—-7v-|
A#|---------7v------------5v------------8v------------5v—-5v-|
F |-0-0-0-0-------0-0-0-0-------0-0-0-0-6v----0-0-0-0-3v—-3v-|
C |----------------------------------------------------------|
P.M.=== P.M.=== P.M.=== P.M.===

Chorus
c |------------------------------------------------------------------|
G |------------------------------------------------------------------|
D#|-----------9v----7v--------------------------9v----7v-------------|
A#|-----------7v----5v----87—-85--------------7v----5v----87—-85-|
F |-0---0--0--------------65—-63----0---0--0--------------65—-63-|
C |------------------------------------------------------------------|

Middle Part
c |----------------------------------|
G |----------------------------------|
D#|----------------------------------|
A#|-----5------------5---------2---2-|
F |-0-0---3-2-0----0---3-2-0---0---0-|
C |----------------------------------|

c |----------------------------|
G |----------------------------|
D#|----------------------------|
A#|---5-----------5-----5------|
F |-0---3-2-0---0---3-2---3-2--|
C |----------------------------|




Ваше мнение



Капча