[email protected]
Kyuss - Size Queen
Tuning: C F A# D# G C
x3
|------------------------------------------------------------------------||
|------------------------------------------------------------------------||
|---9-9-----7-7-----12-12-----5-5-4-----4-4-----4-4-----4-4-----4-4------||
|---9-9-----7-7-----12-12-----5-5-4-----4-4-----4-4-----4-4-----4-4------||
|-x-7-7---x-5-5---x-10-10---x-3-3-2---x-2-2---x-2-2---x-2-2---x-2-2------||
|------------------------------------------------------------------------||
x5
|------------------------------------------------------------------------||
|------------------------------------------------------------------------||
|---9-9-----7-7-----12-12-----5-5-4-----4-4-----4-4-----8-8-----8-8-s-9--||
|---9-9-----7-7-----12-12-----5-5-4-----4-4-----4-4-----8-8-----8-8-s-9--||
|-x-7-7---x-5-5---x-10-10---x-3-3-2---x-2-2---x-2-2---x-6-6---x-6-6-s-7--||
|------------------------------------------------------------------------||
x8
|------------------------------------------------------------------------||
|------------------------------------------------------------------------||
|-16-16-16--s--12-12--s--15-15--s--11-11--s--9-9----9-9-s-11--9----------||
|--x--x--x--s---x--x--s---x--x--s---x--x--s--x-x----x-x-s--x--x----------||
|-14-14-14--s--10-10--s--13-13--s---9--9--s--7-7----7-7-s--9--7----------||
|------------------------------------------------------------------------||
|-------------------------------------------------------------------------|
|-------------------------------------------------------------------------|
|-------12~~--14b16r14--12-11~~--12p11------8-8-8-8--9--11--9-------------|
|-12h14--------------------------------13~--8-8-8-8--9--11--9-------------|
|-------------------------------------------6-6-6-6--7---9--7-------------|
|-------------------------------------------------------------------------|
x4
|------------------------------------------------------------------------||
|------------------------------------------------------------------------||
|----15-15-15-15-15-15-15-15-15------------------------------------------||
|-----x--x--x--x--x--x--x--x--x------------------------------------------||
|----13-13-13-13-13-13-13-13-13---7--7------7--7--7p5--------------------||
|-0-------------------------------0--0--5h7-----------7------------------||
x3
|------------------------------------------------------------------------||
|------------------------------------------------------------------------||
|----15-15-15-15-15-15-15-15-15-s-16--16--15-s-16---16---18--------------||
|-----x--x--x--x--x--x--x--x--x-s--x---x---x-s--x----x----x--------------||
|----13-13-13-13-13-13-13-13-13-s-14--14--13-s-14---14---16--------------||
|-0----------------------------------------------------------------------||
|-------------------------------------------------------------------------|
|-------------------------------------------------------------------------|
|----15-15-15-15-15-15-15-15-15-------------------------------------------|
|-----x--x--x--x--x--x--x--x--x---2---------------------------------------|
|----13-13-13-13-13-13-13-13-13---2---------------------------------------|
|-0-------------------------------0---------------------------------------|

Tablature Key:
|------------- hammer on to 3 |-------------
|--2h3p2------ then pull off |---x-x------- muffled string
|------------- back to 2 |---x-x-------
|------------- pluck 5 then |-------------
|--5b7r5------ bend up until |------------- palm muting
|------------- pitch is equal |-------------
to 7, release to 5 pm..........
|------------- slide along string in |------------- slide to second
|------4s->--- direction of arrow |---5-s-7----- note from first
|------------- |-------------
|-------------
|------5~~~~~- string vibrato
|-------------




Ваше мнение



Капча