[email protected]
Kyuss - Molten Universe
Tuning: C F A# D# G C

RIFF A x2
|-------------------------------------------------------------||
|-------------------------------------------------------------||
|-------------------------------------------------------------||
|-----------5------------5------------------------------------||
|---7-----7------7-----7------7--5b7r5-------7--------7b8r7~~~||
|-0---5-0------0---5-0------0----------5~~-5----5-6-6---------||
|--------------------------------------------------------------|
|--------------------------------------------------------------|
|--------------------------------------------------------------|
|--------------------------------------------------------------|
|---7-----7-----7-----7------7--5b7r5-------7--------7b8r7~~~--|
|-0---5-0---5-0---5-0---5-0-----------5~~-5----5-6-6-----------|
PLAY RIFF A x1 THEN REPEAT INTRO
RIFF B x3
|-------------------------------------------------------------||
|-------------------------------------------------------------||
|-------------------------------------------------------------||
|--------------------------7-7--7-7--8-8--8-8-8--8-7-8--------||
|-7-7--7-7--7-7--7-7--7-7--7-7--7-7--8-8--8-8-8--8-7-8--------||
|-0-0--0-0--0-0--0-0--0-0--5-5--5-5--6-6--6-6-6--6-5-6--------||
RIFF C
|--------------------------------------------------------------|
|--------------------------------------------------------------|
|--------------------------------------------------------------|
|--------------------------7-7--7-7--8-8--8-8-8-8-8-8-8--------|
|-7-7--7-7--7-7--7-7--7-7--7-7--7-7--8-8--8-8-8-8-8-8-8--------|
|-0-0--0-0--0-0--0-0--0-0--5-5--5-5--6-6--6-6-6-6-6-6-6--------|
p.m...............
PLAY RIFF A x4
PLAY RIFF B x1
PLAY RIFF C x1
(GUITAR 1) x4
|-------------------------------------------------------------||
|-------------------------------------------------------------||
|-------------------------------------------------------------||
|-----------5--------------5------8--8-8--5----5----7s8--7s8--||
|---7-----7------7-----5h7---7~~--8--8-8--5----5----7s8--7s8--||
|-0---5-0------0---5-0------------6--6-6--3--0-3-0--5s6--5s8--||
(GUITAR 2)
|---------------------------------8----------------------------|
|--------------------------------10b13r10--10-8~~~~------------|
|--------------------------------------------------------------|
|-----------5--------------5-----------------------------------|
|---7-----7------7-----5h7---7~~-------------------------------|
|-0---5-0------0---5-0-----------------------------------------|
|------------------------------------8-------------------------|
|--------------------------------10-10b13r10--8----------------|
|-----------------------------------------------9~~~-----------|
|-----------5--------------5-----------------------------------|
|---7-----7------7-----5h7-------------------------------------|
|-0---5-0------0---5-0-----------------------------------------|
|---------------------------------8----------------------------|
|--------------------------------10b13r10--8-------8~~~--------|
|--------------------------------------------9-7-9-------------|
|-----------5--------------5-----------------------------------|
|---7-----7------7-----5h7---7~~-------------------------------|
|-0---5-0------0---5-0-----------------------------------------|
|--------------------------------------------------------------|
|--------------------------------------------------------------|
|--------------------------------------------------------------|
|-----------5--------------5------8--8-8--5----5----7s8--7s8---|
|---7-----7------7-----5h7---7~~--8--8-8--5----5----7s8--7s8---|
|-0---5-0------0---5-0------------6--6-6--3--0-3-0--5s6--5s8---|
|--------------------------------------------------------------|
|--------------------------------------------------------------|
|--------------------------------------------------------------|
|--------------------------------------------------------------|
|-7-7--7-7--7-7--7-7-------------------------------------------|
|-0-0--0-0--0-0--0-0-------------------------------------------|

Tablature Key:
|------------- hammer on to 3 |-------------
|--2h3p2------ then pull off |---x-x------- muffled string
|------------- back to 2 |---x-x-------
|------------- pluck 5 then |-------------
|--5b7r5------ bend up until |------------- palm muting
|------------- pitch is equal |-------------
to 7, release to 5 p.m..........
|------------- slide along string in |------------- slide to second
|------4s->--- direction of arrow |---5-s-7----- note from first
|------------- |-------------
|-------------
|------5~~~~~- string vibrato
|-------------




Ваше мнение



Капча