Katzenjammer - Kyuss

This is the punk song off Wretch.
Tune it way the fuck down! B E A D F# b

h - hammer on
p - pull off

Intro/Verse
b |-------------------------------------------------|
F#|-------------------------------------------------|
D |-9-9-9-9-----------------------------------------|
A |-9-9-9-9-9-9-9-9-11-12-12-12-12-12-11-7-7-7-7-7--|
E |-7-7-7-7-9-9-9-9-11-12-12-12-12-12-11-7-7-7-7-7--|
B |---------7-7-7-7--9-10-10-10-10-10--9-5-5-5-5-5--|

Chorus
b |-------------------------------------------------|
F#|-------------------------------------------------|
D |-----------7-7-7-7-7-----------------------------|
A |-2-2-2-2-2-7-7-7-7-7-7-7-7-7-7-7-----------------|
E |-2-2-2-2-2-5-5-5-5-5-7-7-7-7-7-7-----------------|
B |-0-0-0-0-0-----------5-5-5-5-5-5-3p0-0-3p0-0-3p0-|

Middle Part
b |-----------------------------------------------------|
F#|-----------------------------------------------------|
D |-----------------------------------------------------|
A |----------------5------------------------------------|
E |------------5h7---7----------------5h7-----5h7-----7-|
B |-0--0--0-5h7-----------0--0--0—5h7-----5h7-------0---|

b |--------------------------------------------------|
F#|--------------------------------------------------|
D |--------------------------------------------------|
A |---------------------------------2----------------|
E |-----5-----------------5---------2----------------|
B |-5h7---7---0--0--0-5h7---7-5-3---0----------------|


Ваше мнение



Капча