Kyuss – Green Machine

tuning note
top C
2nd F
3rd Bb
4th Eb
5th G
bottom C

main riff
6 ----------------------------------------------------------------------------
5 ----------------------------------------------------------------------------
4 ----------------------------------------------------------------------------
3 -----9-----9-----9-----9-----15-14-----9-----9-----9-----9------------------
2 -7-7-7-7-7-7-7-7-7-7-7-7-7-7-13-12-7-7-7-7-7-7-7-7-7-7-7-7-7-7->>>>>>>>>>>>>
1 --------------------------------------------------------------->>>>>>>>>>>>>

>>>>>> is a slide up the neck

main riff during chorus
6 ----------------------------------------------------------------------------
5 ----------------------------------------------------------------------------
4 ----------------------------------------------------------------------------
3 -----9-----9-----9-----9-----15-14-----9-----9-----9-----9-----12-11--------
2 -7-7-7-7-7-7-7-7-7-7-7-7-7-7-13-12-7-7-7-7-7-7-7-7-7-7-7-7-7-7-10--9--------
1 ----------------------------------------------------------------------------

chorus
6 ----------------------------------------------------------------------------
5 ----------------------------------------------------------------------------
4 ----------------------------------------------------------------------------
3 -----------------------------------------7-7-7--7-12-11---------------------
2 -7--7--7-7-7-7--7-7--7-7-7-10-1010-1010105-5-5--5-10--9---------------------
1 -0--0--0-0-0-0--0-0--0-0-0--8--8-8--8-8-8-----------------------------------




Ваше мнение



Капча