Artist: Kyuss
Song: Freedom Run
Album: Blues For The Red Sun (1992)
Tuning: C-F-Bb-Eb
Notes:
~ - Let Ring
/ - Slide Up
- Slide Down
h - Hammer-On
p - Pull-Off
Intro:
Eb|---------------------|
Bb|---------------------|
F |--/109/109-0~------|
C |---------------------| (x17)
Eb|----------------------|
Bb|----------------------|
F |--/109/109-000000000|
C |----------------------| (x1)
Verse:
Eb|----------------------------------------------------------------|
Bb|---------10~-------------------------------10~------------------|
F |-0-0-0-0----0---0-0-0-10p9-10p9---0-0-0-0----0---0-0-0-0-0-10---|
C |----------------------------------------------------------------|
Eb|------------------------------------------------------------------------|
Bb|---------10~-------------------------10p9------------10p9---------------|
F |-0-0-0-0----0---0-0-0-10p9-10p9----0-------0-10p9-0-------0-10p9-0------|
C |--------------------------------------------------------------------8p7-|(x6)
Chorus:
Eb|--------------------------------------|
Bb|--------------------------------------|
F |-0-0-0-0-0-----/10---10-10-10-10---10-|
C |--------------------------------------| (x12)
Verse: (x9)
Break:
Eb|------------------------------------------------------------------------|
Bb|-------------------------------------10p9------------10p9---------------|
F |-10-10--------10--------10p9-10p9--0-------0-10p9-0-------0-10p9-0------|
C |--------------------------------------------------------------------8p7-|
Eb|---------------------------------------------------------------------|
Bb|---------------------------------------------------------------------|
F |-10--10-10-10--10-10--10-10-10--10--10-10-10--10--10-10-10--10-10-10-|
C |---------------------------------------------------------------------|
Eb|----------------------------------------------------------------|
Bb|----------------------------------------------------------------|
F |-10-0-0-0--0-0--0-0-0--0--0-0-0--0--0-0-0--0-0--0-0-0--10h12p10-|
C |----------------------------------------------------------------|
Eb|-----------------------------------------------------------------------|
Bb|-----------------------------------------------------------------------|
F |-10--10-10-10--10-10--10-10-10--10--10-10-10--10--10-10-10--10-10---10-|
C |-----------------------------------------------------------------------|
Eb|---------------------------------------|
Bb|----10p9------------10p9---------------|
F |--0-------0-10p9-0-------0-10p9-0------|
C |-----------------------------------8p7-|
Verse: (x2)
Chorus: (x12)
Outro:
Eb|------------------------------------------------|
Bb|------------------------------------------------|
F |-0-0--0-0--0-0--0-0-------0-0--0-0--0-0--0-0----|
C |------------------------------------------------|
Eb|---------------------------------------|
Bb|----10p9------------10p9---------------|
F |--0-------0-10p9-0-------0-10p9-0------|
C |-----------------------------------8p7-| (x2)
End on an open F




Ваше мнение



Капча