Song: Fatso Forgotso
Artist: Kyuss
Record: Muchas gracias-The best of
Tune down 1/2 step
Intro:
Riff 1:
G------------------
D-------------9---
A----5---5-5--7--- repeat
E--6---6-----------
Riff 2/(chorus):
G-------------------------------------------
D--9--x------5-5---------------------------
A--7--x--5-7-----7-55-------------5-5--5-55 repeat
E----------------------x-6-66-6-xx----------
Verse:
G--------------------------------------------
D--9----------------------------------------
A--7------------------------------5-5--5-55- repeat
E-----------------------x-6-66-66-x----------
Interlude:
G------------------------------------
D------------------------------------
A------------------------------------
E--0000000022222222/8888888877777777/
G----------------------------------------------
D----------------------------------------------
A----------------------------------------------
E--333333333/8888888877777777/1010101010101010-
End:
G---------------------------------------------------------2
D-2h4-2-----------------4-------4---4--------------2-4--
A-------4-3-2---2-3-----------------------------2-3-4------E-------------5-----22-2----22-2----2----2(2)-5------------
I know the end isn't very accurate, but you've got an idea of it.
If you have any comments, corrections or other Kyuss tabs please let me know.
[email protected]




Ваше мнение



Капча