kyuss
demon cleaner
tab 2
transcription by marcelo f. v.
[email protected]
tuning : low to high -c f a# d# g c
drums
intro of music on the bass line :
g-----------------3333---1111--
d------------------------------
a---3333---3333---------------- 2x
e------------------------------
c------------------------------------------------
g------------------------------------------------
d#----------------------------------------------- 3x
a#-(19)--17--15-17-15-17--19/20-19--17-19------
f------------------------------------------17----
c------------------------------------------------
c----------------------------------
g----------------------------------
d#--17--15--17-15--17--19b~r~b~~---
a#---------------------------------
f----------------------------------
c----------------------------------
a#--12----12-----------x-15~~//17----
f---xx-----------------x-xx---------
c---10-xx-10h11p10-----x-13~~//15---- 3x
a#--12----12-----------x-12---------
f---xx-----------------x-xx---------
c---10-xx-10h11p10-----x-10~--------
a#-12-----------------
f-----15-13--15-13~---
c--10~----------------
a#-12----------------------
f--------13-12~---13-12~---
c--10~---------------------
d#-----------------------------[--------------------------------------9---------
a#--12~---~--------------------[--12-----------10--------8~~~~~-------10----12--
f---12~~~~~--------------------[--xxxxxxxxxxxxxxx--------xxxxxxxxxxxxx----------
c---10~~~~~--------------------[--10-----------8---------6~~~~~~------8xx---10--
c--12---10---8--8h10p8h10p8------
g--17b--15~--13br----------------
d#-------------------------------
a#-------------------------------
f----------------/~~------------
c--------------------------------
c--12---10---8-----7--8b--5--/3~~--------------
g--17b--15~--13br--7--13br7--/1~~--------------
a#---------------------------------------------
end




Ваше мнение



Капча