Artist: Kyuss
Song: Day One
Album: ...And the Circus Leaves Town (1995)
Tuning: C-F-Bb-Eb
Notes: Secret track 32 minutes in to track 11
~ - Let Ring
- Slide Down
/ - Slide Up
Verse 1:
Eb|---------------------------------------|
Bb|---------------------------------------|
F |---------------------------------------|
C |-0---0--0-0-0-0--0/8---8--8-8-8-8--8--| (x6)
Chorus:
Eb|-----------------------------------------------------|
Bb|-----------------------------------------------------|
F |-----9-------10-------9-------10-------9-------10----|
C |-7-7---7/8-8----87-7---7/8-8----8/7-7---7/8-8----8--|
Eb|-----------------|
Bb|----/12~---/14--|
F |-----------------|
C |-7---------------|
Verse 2:
Eb|---------------------------------------|
Bb|---------------------------------------|
F |---------------------------------------|
C |-0---0--0-0-0-0--0/8---8--8-8-8-8--8--| (x3)
Chorus:
Eb|---------------------------------|
Bb|--------------------/12~---/14--|
F |-----9-------10------------------|
C |-7-7---7/8-8----87--------------|
Verse 3:
Eb|---------------------------------------|
Bb|---------------------------------------|
F |---------------------------------------|
C |-0---0--0-0-0-0--0/8---8--8-8-8-8--8--| (x2)
Eb|-----|
Bb|-----|
F |-----|
C |-0~--|




Ваше мнение



Капча