Kyuss, Catamaran
Jacobs,[email protected]
group: Kyuss
song: Catamaran
album: ...And the circus leaves town
tab: [email protected]
Standard Tuning
A.
----------------------------------------------------------------------------
----------------------------------------------------------------------------
--0----0--0--0--0--0--0--0----0--0--0---0--0--0-----------------------------
-10---10-10-10-10-10-10/12---12-12-12--12-12-12-----------------------------
--8----8--8--8--8--8--8/10---10-10-10--10-10-10-----------------------------
----------------------------------------------------------------------------
B1. B2.
-----------------------------------------|----------------------------------
-----------------------------------------|----------------------------------
----------7-7------0---0--0--0---0--0--0-|----------------------------------
--8---8-8-8-8-8-8/10--10-10-10--10-10-10-|-15--15--15-15--15-15--15-15-15--
--6---6-6-6-6-6-6/8----8--8--8---8--8--8-|-13--13--13-13--13-13--13-13-13--
-----------------------------------------|----------------------------------
B3. B4.
----------------------------|-----------------------------------------------
----------------------------|-----------------------------------------------
--0---0--0--0---0--0--0-----|--0---0--0--0-10-------------------------------
-10--10-10-10--10-10-10-...-|-10--10-10-10-10-------------------------------
--8---8--8--8---8--8--8-----|--8---8--8--8--8-------------------------------
----------------------------|-----------------------------------------------
INTRO:Play A-B1 A-B2 A-B1 A-B3 A-B1 A-B4
-----

C.
----------------------------------------------------------------------------
----------------------------------------------------------------------------
--8---8--8--8----------------------7-7--------------------------------------
-10--10-10-10---...--------8--8-8--8-8-...----------------------------------
--8---8--8--8--------------6--6-6--6-6--------------------------------------
----------------------------------------------------------------------------
REFRAIN:Distortion+wah(and one octave down?)
--------
----------------------------------------------------------------------------
----------------------------------------------------------------------------
----------------------------------------------------------------------------
---------8------------------------------------------------------------------
--10--4--6--4------------------------------------------------------------------
---8--2--6--2-----------------------------------------------------------------

Remarks to silver_3001.yahoo.com




Ваше мнение



Капча