song:ASTEROID
artist:KYUSS
Album: Welcome to sky vally
transcribed by Brent j. C
Verse (i guess)
D------------------------------------------|
A------------------------------------------|
F------------------------------------------|
C-----------------------3h5-5h3-2p0--------|
G----5---5----7-5-------------------3-2----|
C--0---0---0-8-------0---------------------|
Chorus?
D-----------------------------------------------------------|
A-----------------------------------------------------------|
F-------10---9----5-4---------------------------------------|
C-------x----x----x-x--x3------------------3-2--------3-5---|
G-------8----7----3-2---------0-3-5-0-5-3-0----0-3-5-0------|
C--0-00--00---00--------------------------------------------|
D------------------------------------------------------------0----|
A------------------------------------------------------------3----|
F-------10---9----5-4----------------------------------------2----|
C-------x----x----x-x--x3-------------------5-3---------3-2--0----|
G-------8----7----3-2---------0-3-5-0-5-3-0-----0-3-5-0------0----|
C--0-00--00---00---------------------------------------------0----|
verse
kinda solo with the verse
then one more riff of the verse
then the chorus
outro play faster as the temp picks up
D--------------------------------------------------------------|
A--------------------------------------------------------------|
F--------------------------------------------------------------|
C---------------3-2--------3-5---------------5-3---------3-2---|
G-0-3-5-0-5-3-0----0-3-5-0-----0-3-5-0-5-3-0-----0-5-3-0-------|
C--------------------------------------------------------------|
the riffs are all here there in order just listen to recording
for how many times you play each section.
And during the verse Josh Hommes plays some kind of weird beat
just listenign to it becuse it changes every time.
As for the solo just mess around anything sounds good.
D phygian sounds alright in it. But i dunno the Key.




Ваше мнение



Капча