Artist: Kyuss
Song: Allen's Wrench
Album: Blues for the Red Sun (1992)
Tuning: C-F-Bb-Eb
Notes:
~ - Let Ring
h - Hammer-On
p - Pull-Off
- Slide Down
/ - Slide Up
Intro:
Eb|--------|
Bb|--------|
F |--/12--|
C |--------|
Verse:
Eb|-----------------------------------------|
Bb|------7-7------7-7------7-7--------------|
F |-0-00-----0-00-----0-00-----0-00---------|
C |---------------------------------3h5-3h5-|
Eb|---------------------------------------------|
Bb|------7-7------10-10------12-12--------------|
F |-0-00-----0-00-------0-00-------0-00---------|
C |-------------------------------------3h5-3h5-|
Chorus:
Eb|----------------------------------------------|
Bb|----------------------------------------------|
F |-0-00-0-00-0-10--10-10----0-00-0-00-10--12-12-|
C |----------------------------------------------|
Bass Solo: Just improvise, this is what I usually mess around with
Eb|-------14--14-14-14-14-12-----------------|
Bb|-12h14--------------------14-12-----------|
F |--------------------------------14-13-12--|
C |------------------------------------------|
Outro:
Eb|-------------------|
Bb|-------------------|
F |-------------------|
C |-5-5-5-5-333-2-2-3-|




Ваше мнение



Капча