Artist: Kyuss
Song: 100°
Album: Welcome to Sky Valley (1994)
Tuning: C-F-Bb-Eb
Notes:
b - Bend
h - Hammer-On
p - Pull-Off
- Slide Down
/ - Slide Up
x - Mute Note
Verse 1:
Eb|------------------------------------------------------|
Bb|----------------------------------------5-------------|
F |-5h7-7-7-7-7--5h7-7-7-7-7--5h7-7-7-7-7----7-7-7-7-7-7-|
C |------------------------------------------------------| (x3)
Chorus:
Eb|------------------------|
Bb|---------5-7b-5-----5---|
F |-----5h7--------7-5-----|
C |-0-0--------------------| (x9)
Verse 2:
Eb|------------------------------------------------------|
Bb|----------------------------------------5-------------|
F |-5h7-7-7-7-7--5h7-7-7-7-7--5h7-7-7-7-7----7-7-7-7-7-7-|
C |------------------------------------------------------| (x4)
Chorus:
Eb|------------------------|
Bb|---------5-7b-5-----5---|
F |-----5h7--------7-5-----|
C |-0-0--------------------| (x9)
Bridge:
Eb|-------------------------------------------8-----|
Bb|-------------------------------------7-------7---|
F |---------------------------------------6--0----0-|
C |-0--0-0-0-0-0-0-------0--0-0-0-0-0-0-------------|
Eb|---------------------------------------8--|
Bb|------------------------------------------|
F |-----------------------------------76----|
C |-0--0-0-0-0-0-0-------0--0-0-0-0-0--------|
Interlude:
Eb|-------9-8-7---------------6h8-6h8-----|
Bb|-------------7h9-9-8-6-6h8---------8p6-|
F |-7-7-7---------------------------------|
C |---------------------------------------|
Eb|-------9-8-7---------------------|
Bb|-------------75-x5-x6-6h8-8-8-6-| < This is my best guess
F |-7-7-7---------------------------|
C |---------------------------------|
Eb|-------9-8-7---------------6h8-6h8-----|
Bb|-------------7h9-9-8-6-6h8---------8p6-|
F |-7-7-7---------------------------------|
C |---------------------------------------|
Eb|-------9-8-7---------------------|
Bb|-------------75-5-6-7-7p5-------|
F |-7-7-7--------------------5-6-7--|
C |---------------------------------|
Verse 3:
Eb|------------------------------------------------------|
Bb|----------------------------------------5-------------|
F |-5h7-7-7-7-7--5h7-7-7-7-7--5h7-7-7-7-7----7-7-7-7-7-7-|
C |------------------------------------------------------| (x4)




Ваше мнение



Капча