Song: Tattva
Artist: kula shaker
Album: k
Tabbed by: Tom wilks ([email protected])
http://www.basstabarchive.com/
Be Alonza bevan
standard turning
verse:
G|--------------------------------------------------------------------------]
D|--------------------------------------------------------------------------]
A|-----8-------8--------------6------8------------------------------------]
E|---------------------------------------------6-----7-----8----------------]
, acintya bheda bheda tattva
x4
chrous:
G|-------------------------------------------------------------------------------------------------------------|
D|--------------------------------6---------6-------6-------------------------3--------3--------5--------6-----|
A|-------4---------4---------------------------------------3---------3-----------------------------------------|
E|-------------------------------------------------------------------------------------------------------------|
like the flower and the scent of summer
............................................
G]--------------------------------------------------------------------------------------------------------------------]
D]-------------------------------6---------6--------6-----------------------------------------------------------------]
A]-------4---------4--------------------------------------3--------3--------3-------3------3-------3-------3--------3-]
E]--------------------------------------------------------------------------------------------------------------------]
well the truth may
come................................................................





Ваше мнение



Капча