Kreator: Terror Zone
transcribed by: Russ Elton ([email protected])
http://www.geocities.com/vicelton/
Last Modified: 02/13/00
notation:
^ = bend [ ^ = half, ^^ = whole, etc. ]
^r = bend and release
x = mute with fret-hand
pm = mute with palm-hand
X = pick slide
h = hammer-on
p = pull-off
~ = vibrato
t = tap-on
/ = slide up
= slide down
h. = harmonics
ah = artificial harmonic
(9) = ghost note
tm = trem picking
tr = trill
All tabs are how I play the song. I've tried to be as accurate as possible, but
some errors may be present. Please contact me with any corrections.
All tabs assume some familiarity with the song. In other words, I've laid out
the riffs, and if you know the song, you should be able to figure out what riff goes
where, although I will try and lay the riffs out sequentially.
There is some consideration for timing on these tabs. Listen to the song for
the correct timing. I'll do my best to try and space out notes based
on length.
Tuning: Standard
Intro (Guitar 1 plays this)
e|----------------------------------------------------------------------------------|
B|----------------------------------------------------------------------------------|
G|-----9------7-------------9------7------------------------------------------------|
D|---9---9-10---10--9-7---9---9-10---10--9-5--------5-------------------------------|
A|-------------------------------------------5-7--8----8-7-5----------5-------------|
E|-----------------------------------------------------------8-5-7--8----8-7-3-5----|
This is played behind the above bars (number of chords changes, but it's this pattern)
e|----------------------------------------------------------------------------------|
B|----------------------------------------------------------------------------------|
G|----------------------------------------------------------------------------------|
D|--7----------------7-------------------7-5---------------3------2--------5--------|
A|--7----------------7-------------------7-5---------------3------2--------5--------|
E|--5----------------5-------------------5-3---------------1------0--------3--------|
END INTRO WITH THIS CHORD
e|------|
B|------|
G|------|
D|--7---|
A|--7---|
E|--5---|
Chorus riff
alt. ending
e|-----------|------------------------------------------------|--------------|
B|-----------|------------------------------------------------|--------------|
G|-----------|------------------------------------------------|--------------|
D|--5--7--8--|-------2--------------4-3-----2----------3-4----|--5--7--8-----|
A|--5--7--8--|-------2----------5-4-2-1-----2----------1-2----|--5--7--8-----|
E|--3--5--6--|--0-0--0-0-0-0-0--3-2------0--0--0-0-0-0--------|--3--5--6-----|
pmpm pmpmpmpm pm pmpmpmpm
Guitar 2 plays this over the above riff
e|-----------------------------------------------------------------------------------|
B|-----------------------------------------------------------------------------------|
G|---9---12--11--10---9---12---14---15-----------------------------------------------|
D|-----------------------------------------------------------------------------------|
A|---7---10---9---8---7---10---12---13~~---------------------------------------------|
E|-----------------------------------------------------------------------------------|
Guitar 1 plays this
e|--------------------------------------------------------|
B|--------------------------------------------------------|
G|--9----------------9----------------9-------------------|
D|--9----------------9----------------9--5-5-5-5----------|
A|--7---5-5-5-5-4-5--7---5-5-5-5-4-5--7--3-3-3-3-5-7------|
E|------3-3-3-3-2-3------3-3-3-3-2-3-------------3-5------|
pmpmpmpmpmpm pmpmpmpmpmpm pmpmpmpmpmpm
Guitar 2 plays this
e|--------------------------------------------------------|
B|--------------------------------------------------------|
G|-12----------------9----------------5-------------------|
D|---------------------------------------5-5-5-5----------|
A|-10---5-5-5-5-4-5--7---5-5-5-5-4-5--3--3-3-3-3-5-7------|
E|------3-3-3-3-2-3------3-3-3-3-2-3-------------3-5------|
pmpmpmpmpmpm pmpmpmpmpmpm pmpmpmpmpmpm
e|------------------------------------------------------------------|
B|------------------------------------------------------------------|
G|------------------------------------------------------------------|
D|----------------------------------------------------------3-5-3---|
A|-------------------------------1-1-1-1-1-1-1-1-1-1-1-1--5---------|
E|-0-0-0-0-0-0-0-0-0-0-0-3-0-2-0------------------------------------|
|------------pm-----------| |------------pm--------------|
e|------------------------------------------------------------------|
B|------------------------------------------------------------------|
G|------------------------------------------------------------------|
D|--------------------------------------------------3-5-3-----------|
A|-------------------------------2-2-2-2-2-2-2-2--5---------3-5-3---|
E|-0-0-0-0-0-0-0-0-0-0-0-3-0-2-0--------------------------5---------|
|------------pm-----------| |------------pm--------------|
Verse
e|------------------------------------------------------------|
B|------------------------------------------------------------|
G|--------------3---------------------------------------------|
D|--2-----------3-----3-5-3--2------------3----3-5-3----------|
A|--2-----------1---5--------2------------3--5---------3-5-3--|
E|--0---3-0-2-0--------------0---3-0-2-0--1----------5--------|
pmpmpmpm pmpmpmpm pmpmpmpm pmpmpmpmpmpmpmpm
e|------------------------------------------------------------|
B|------------------------------------------------------------|
G|--------------3-----------------------------5-----6---------|
D|--2-----------3-----3-5-3--2------------3---5--5--6---------|
A|--2-----------1---5--------2------------3---3--5--4---------|
E|--0---3-0-2-0--------------0---3-0-2-0--1------3------------|
pmpmpmpm pmpmpmpm pmpmpmpm
Guitar 1 plays this
x2 Final time
e|----------------------|------------------|-------------------|------------|
B|----------------------|------------------|-------------------|------------|
G|----------------------|------------------|-------------------|--5---------|
D|--10-9------10-9------|--9-8-----9-8-----|-9-8---------8-9---|--5--5--6---|
A|-------10-9------10-9-|------9-8-----9-8-|-----9-8-8-9-------|--3--5--6---|
E|----------------------|------------------|-------------------|-----3--4---|
|---------------slight palm mute-----------------------|
Guitar 2 plays this
x2 Final time
e|-----------------------|----------------------|-----------------------|------------|
B|-----------------------|----------------------|-----------------------|------------|
G|-----------------------|----------------------|-----------------------|--5---------|
D|--13-12-----13-12------|-12-11-----12-11------|-12-11-----------11-12-|--5--5--6---|
A|-------13-12-----13-12-|------12-11-----12-11-|------12-11-11-12------|--3--5--6---|
E|-----------------------|----------------------|-----------------------|-----3--4---|
|----------------------slight palm mute---------------------------|
Verse
e|------------------------------------------------------------|
B|------------------------------------------------------------|
G|--------------3---------------------------------------------|
D|--2-----------3-----3-5-3--2------------3----3-5-3----------|
A|--2-----------1---5--------2------------3--5---------3-5-3--|
E|--0---3-0-2-0--------------0---3-0-2-0--1----------5--------|
pmpmpmpm pmpmpmpm pmpmpmpm pmpmpmpmpmpmpmpm
e|------------------------------------------------------------|
B|------------------------------------------------------------|
G|--------------3-----------------------------5-----6---------|
D|--2-----------3-----3-5-3--2------------3---5--5--6---------|
A|--2-----------1---5--------2------------3---3--5--4---------|
E|--0---3-0-2-0--------------0---3-0-2-0--1------3------------|
pmpmpmpm pmpmpmpm pmpmpmpm
Chorus
alt. ending
e|------------------------------------------------|--------------|
B|------------------------------------------------|--------------|
G|------------------------------------------------|--------------|
D|-------2--------------4-3-----2----------3-4----|--5--7--8-----|
A|-------2----------5-4-2-1-----2----------1-2----|--5--7--8-----|
E|--0-0--0-0-0-0-0--3-2------0--0--0-0-0-0--------|--3--5--6-----|
pmpm pmpmpmpm pm pmpmpmpm
Guitar 1 plays this
e|-------------------|
B|-------------------|
G|--9----------------|
D|--9----------------|
A|--7---5-5-5-5-4-5--|
E|------3-3-3-3-2-3--|
pmpmpmpmpmpm
Guitar 2 plays this
e|-------------------|
B|-------------------|
G|-12----------------|
D|-------------------|
A|-10---5-5-5-5-4-5--|
E|------3-3-3-3-2-3--|
pmpmpmpmpmpm
Solo Rhythm
e|------------------------------------------------------------------|
B|------------------------------------------------------------------|
G|------------------------------------------------------------------|
D|----------------------------------------------------------3-5-3---|
A|-------------------------------1-1-1-1-1-1-1-1-1-1-1-1--5---------|
E|-0-0-0-0-0-0-0-0-0-0-0-3-0-2-0------------------------------------|
|------------pm-----------| |------------pm--------------|
e|------------------------------------------------------------------|
B|------------------------------------------------------------------|
G|------------------------------------------------------------------|
D|--------------------------------------------------3-5-3-----------|
A|-------------------------------2-2-2-2-2-2-2-2--5---------3-5-3---|
E|-0-0-0-0-0-0-0-0-0-0-0-3-0-2-0--------------------------5---------|
|------------pm-----------| |------------pm--------------|
Verse
e|------------------------------------------------------------|
B|------------------------------------------------------------|
G|--------------3---------------------------------------------|
D|--2-----------3-----3-5-3--2------------3----3-5-3----------|
A|--2-----------1---5--------2------------3--5---------3-5-3--|
E|--0---3-0-2-0--------------0---3-0-2-0--1----------5--------|
pmpmpmpm pmpmpmpm pmpmpmpm pmpmpmpmpmpmpmpm
e|------------------------------------------------------------|
B|------------------------------------------------------------|
G|--------------3-----------------------------5-----6---------|
D|--2-----------3-----3-5-3--2------------3---5--5--6---------|
A|--2-----------1---5--------2------------3---3--5--4---------|
E|--0---3-0-2-0--------------0---3-0-2-0--1------3------------|
pmpmpmpm pmpmpmpm pmpmpmpm
Chorus
alt. ending
e|------------------------------------------------|--------------|
B|------------------------------------------------|--------------|
G|------------------------------------------------|--------------|
D|-------2--------------4-3-----2----------3-4----|--5--7--8-----|
A|-------2----------5-4-2-1-----2----------1-2----|--5--7--8-----|
E|--0-0--0-0-0-0-0--3-2------0--0--0-0-0-0--------|--3--5--6-----|
pmpm pmpmpmpm pm pmpmpmpm
Tempo Change (3:52 into song)
e|---------------------------|
B|---------------------------|
G|---------------------------|
D|--------2--3--5--7--5--9---|
A|--2--3--0--1--3--5--3--7---|
E|--0--1---------------------|
e|----------------------------------------------------------------------|
B|----------------------------------------------------------------------|
G|----------------------------------------------------------------------|
D|--10---9---7---5---5h7-------5h7------10---9---7---5---5h7------5--8--|
A|-----0---0---0---0-----0-0-0----0-0-0----0---0---0---0-----0-0--3--6--|
E|----------------------------------------------------------------------|
pm pm pm pm pmpmpm pmpmpm pm pm pm pm pmpm
e|----------------------------------------------------------------------|
B|----------------------------------------------------------------------|
G|----------------------------------------------------------------------|
D|--------------------------------------------------------------9-------|
A|-----------------5h7-------5h7------------------------5h7-----7--7-7--|
E|-0-0-2-2-3-3-5-5-----5-5-5-----5-5-5--0-0-2-2-3-3-5-5-----5-5---------|
pmpmpmpmpmpmpmpm pmpmpm pmpmpm pmpmpmpmpmpmpmpm pmpm pmpm
e|----------------------------------------------------------------------|
B|----------------------------------------------------------------------|
G|----------------------------------------------------------------------|
D|--3---5---6---5---3---------------3---5---6---5---3-------------------|
A|----0---0---0---0---0-0-0--5--4-----0---0---0---0---0-0-0-----3-------|
E|---------------------------3--2---------------------------3-4---------|
pm pm pm pm pmpmpm pm pm pm pm pmpmpmpmpm
e|----------------------------------------------------------------------|
B|----------------------------------------------------------------------|
G|----------------------------------------------------------------------|
D|--10---9---7---5---5h7-------5h7------10---9---7---5---5h7------------|
A|-----0---0---0---0-----0-0-0----0-0-0----0---0---0---0-----0-0--------|
E|----------------------------------------------------------------------|
pm pm pm pm pmpmpm pmpmpm pm pm pm pm pmpm
e|--------------------------|
B|--------------------------|
G|--------------------------|
D|--5--9--7--4--2-----------|
A|--3--7--5--2--0--5--7--8--|
E|-----------------3--5--6--|
e|----------------------------------------------------------------------|
B|----------------------------------------------------------------------|
G|----------------------------------------------------------------------|
D|--------------------------------------------------------------9-------|
A|-----------------5h7-------5h7------------------------5h7-----7--7-7--|
E|-0-0-2-2-3-3-5-5-----5-5-5-----5-5-5--0-0-2-2-3-3-5-5-----5-5---------|
pmpmpmpmpmpmpmpm pmpmpm pmpmpm pmpmpmpmpmpmpmpm pmpm pmpm
e|----------------------------------------------------------------------|
B|----------------------------------------------------------------------|
G|----------------------------------------------------------------------|
D|--3---5---6---5---3---------------3---5---6---5---3-------------------|
A|----0---0---0---0---0-0-0--5--4-----0---0---0---0---0-0-0-----3-------|
E|---------------------------3--2---------------------------3-4---------|
pm pm pm pm pmpmpm pm pm pm pm pmpmpmpmpm
e|----------------------------------------------------------------------|
B|----------------------------------------------------------------------|
G|----------------------------------------------------------------------|
D|--10---9---7---5---5h7-------5h7------10---9---7---5---5h7------5--8--|
A|-----0---0---0---0-----0-0-0----0-0-0----0---0---0---0-----0-0--3--6--|
E|----------------------------------------------------------------------|
pm pm pm pm pmpmpm pmpmpm pm pm pm pm pmpm
e|----------------------------------------------------------------------|
B|----------------------------------------------------------------------|
G|----------------------------------------------------------------------|
D|--3---5---6---5---3---------------3---5---6---5---3-------------------|
A|----0---0---0---0---0-0-0--5--4-----0---0---0---0---0-0-0-----3-------|
E|---------------------------3--2---------------------------3-4---------|
pm pm pm pm pmpmpm pm pm pm pm pmpmpmpmpm
e|----------------------------------------------------------------------|
B|----------------------------------------------------------------------|
G|----------------------------------------------------------------------|
D|--10---9---7---5---5h7-------5h7------10---9---7---5---5h7------5--8--|
A|-----0---0---0---0-----0-0-0----0-0-0----0---0---0---0-----0-0--3--6--|
E|----------------------------------------------------------------------|
pm pm pm pm pmpmpm pmpmpm pm pm pm pm pmpm
e|--------------------------|
B|--------------------------|
G|--------------------------|
D|--5--9--7--4--2-----------|
A|--3--7--5--2--0--5--7--8--|
E|-----------------3--5--6--|
Outro (Guitar 1 plays this)
e|----------------------------------------------------------------------------------|
B|----------------------------------------------------------------------------------|
G|-----9------7-------------9------7------------------------------------------------|
D|---9---9-10---10--9-7---9---9-10---10--9-5--------5-------------------------------|
A|-------------------------------------------5-7--8----8-7-5----------5-------------|
E|-----------------------------------------------------------8-5-7--8----8-7-3-5----|
This is played behind the above bars (number of chords changes, but it's this pattern)
e|----------------------------------------------------------------------------------|
B|----------------------------------------------------------------------------------|
G|----------------------------------------------------------------------------------|
D|--7----------------7---------------------5---------------3---------2--------------|
A|--7----------------7---------------------5---------------3---------2--------------|
E|--5----------------5---------------------3---------------1---------0--------------|
ENDING CHORD
e|------|
B|------|
G|------|
D|--7---|
A|--7---|
E|--5---|




Ваше мнение



Капча