Artist: Kreator
Song: Pleasure To Kill
Album: Pleasure To Kill
Year: 1986

Tabbed by Jori Merilainen, send any corrections, suggestions
or questions to: [email protected]

Tune down one whole step (DGCFAd)

Here's the title track from Pleasure To Kill, another
classic, what more can I say!!??

1) Main riff:
F|-------------------------------------------------------|
C|-------------------------------------------------------|
G|-----------------------------------------9-9-9-10-9-7--|
D|--00000000000012h130011h1200000000000000-7-7-7--9-7-5--|
............ .. ..............

2) Pre-chorus:
F|------------------------------------------------------|
C|--8-----8-----8-----8-----8-----8-----8------5--6--7--|
G|--6-66666-66666-66666-66666-66666-66666-6666-3--4--5--|
D|----....--....--....--....--....--....--....----------|

3) Chorus fill:
F|------------|
C|--5---4-----|
G|--3---2--5--|
D|---------3--|

4a) Middle-section:
F|------------------------------------------------|
C|---------4-----3------------4----------------5--|
G|---------2-----1------------2------3---------3--|
D|--0-0-0-0---0-0------0-0-0-0---0-0-1--1-1-1-1---|
. . . . . . . . . . . . . . . .
4b) Ending:
F|--------------------------------------------------|------------------|
C|--------------------------------------------------|------------------|
G|----------------3---------------3---------------3-|-5-3-2------------|
D|--0-0-0-0-0-2-3---0-0-0-0-0-2-3---0-0-0-0-0-2-3---|-------3-2-5-3-2--|
. . . . . . . . . . . . . . . . . . . . . . . . . . . . .
4c) Last time ending:
F|-------------------------------------|
C|-------------------------------------|
G|--5-3-2---------------------------2--|
D|--------3-2-3-5-3-5-3-2-0-3-2-3-2-0--|
. . . . . . . . . . . . . . . .

5a) Outro:
F|----------------------------------------------------------|
C|----------------------------------------------------------|
G|------------------------------------------------10-10-10--|
D|-00000012h130014h150016h170000000012h130011h1200-8--8--8--|
...... .. .. ........ .. ..
5b)
F|-----------------|
C|--------------9--|
G|--9-9-9-5-5-5-7--|
D|--7-7-7-3-3-3----|

THE END.




Ваше мнение



Капча