People Of The Lie - Kreator |
----------------------------

TAB: by Big M
e-mail: [email protected]

Intro
G|-----------------|---|-----------------|------------------|--------------------|---|
D|-----------------|---|-----------------|------------------|--------------------|---|
A|-3-2-------------|---|-2-2-2-3---------|---------5-4------|--------------------|---|
E|-----3-0---------|---|-----------------|-------------0000-|-6-5-0000-0---------|---|

G|-----------------|------------------|-----------------|---|
D|-----------------|------------------|-----------------|---|
A|-2-2-2-3---------|---------5-4------|-----------------|---|
E|-----------------|-------------0000-|-0---------------|---|

Verse
G|-----------------|-----------------|-------------------|-----------------|
D|-----------------|-----------------|-------------------|-----------------|
A|-----------------|---------1/2-----|-------------------|-----------------|
E|-0-0-0-1-0-0-0-0-|-0-0-0-0-----0-1-|-(1)-0-0-0-0-0-0-0-|-0-0-0-0-0-0-0-0-|

Chorus
G|-----------------|-----------------|-----------------|------------------|
D|-----------------|-----------------|-----------------|------------------|
A|-----------------|-----------------|-2---------------|------------------|
E|-0---------------|-3---------------|-----------------|-2-------1--------|

Fig.1
G|-----------------|-----------------|
D|-----------------|-----------------|
A|-----------------|-----------------|
E|-0-0-0-0-0-0-0-0-|-0-0-0-0-0-0-0-0-|

Fig.2
G|-----------------|-----------------|-------------------|-----------------|
D|-----------------|-----------------|-------------------|-----------------|
A|-----------------|-----------------|-------------------|-----------------|
E|-2---2-2-2-2-2-2-|-2-2-2-2-2-2-2-2-|-5---5-5-5-5-5-5-5-|-5-5-5-5-5-5-5-5-|

G|-----------------|-----------------|-------------------|-----------------|
D|-----------------|-----------------|-------------------|-----------------|
A|-----------------|-----------------|-2-----------------|-----------------|
E|-4---4-4-4-4-4-4-|-4-4-4-4-4-4-4-4-|-------------------|-----------------|

Solo
G|-----------------|-----------------|-------------------|-----------------|
D|-----------------|-----------------|-------------------|-----------------|
A|-----------------|---------5-4-----|-------------------|-----------------|
E|-3-3-3-3-3-3-3-3-|-3-3-3-3-----5-4-|-(4)-3-3-3-3-3-3-3-|-3-3-3-3-3-3-3-3-|

G|-----------------|-----------------|-------------------|-----------------|
D|-----------------|-----------------|-------------------|-----------------|
A|-----------------|---------5-4-----|-------------------|-----------------|
E|-3-3-3-3-3-3-3-3-|-3-3-3-3-----5-4-|-(4)-3-3-3-3-3-3-3-|-3-3-3-3-3-3-3-3-|

G|-----------------|-----------------|-------------------|-----------------|
D|-----------------|---------4-3-----|-------------------|-----------------|
A|-2-2-2-2-2-2-2-2-|-2-2-2-2-----4-3-|-(3)-2-2-2-2-2-2-2-|-2-2-2-2-2-2-2-2-|
E|-----------------|-----------------|-------------------|-----------------|

G|-----------------|-----------------|-------------------|-----------------|
D|-----------------|---------4-3-----|-------------------|-----------------|
A|-2-2-2-2-2-2-2-2-|-2-2-2-2-----4-3-|-(3)-2-2-2-2-2-2-2-|-2-2-2-2-2-2-2-2-|
E|-----------------|-----------------|-------------------|-----------------|

G|-----------------|-----------------|-------------------|-----------------|
D|-----------------|---------7-6-----|-------------------|-----------------|
A|-5-5-5-5-5-5-5-5-|-5-5-5-5-----7-6-|-(6)-5-5-5-5-5-5-5-|-5-5-5-5-5-5-5-5-|
E|-----------------|-----------------|-------------------|-----------------|

G|-----------------|-----------------|-------------------|-----------------|
D|-----------------|---------7-6-----|-------------------|-----------------|
A|-5-5-5-5-5-5-5-5-|-5-5-5-5-----7-6-|-(6)-5-5-5-5-5-5-5-|-5-5-5-5-5-5-5-5-|
E|-----------------|-----------------|-------------------|-----------------|

Interlude
G|------------------|------------------|
D|------------------|--------------9---|
A|-----7-8-10-8-----|-7-8-10-8-8-7-----|
E|-0-0----------0-0-|------------------|

----------------
Song structure: |
----------------
Intro 1x
Verse 6x
Chorus 1x
Fig.1 1x
Verse 4x
Chorus 1x
Fig.2 1x
Solo 1x
Interlude 4x
Verse 4x
Chorus 4x




Ваше мнение



Капча