KREATOR
'Nonconformist'
from the album 'Cause For Conflict'
transcribed by
Tero Liimatainen ([email protected])
find more metal tablatures at
http://venus.spaceports.com/~metaltab/
|--------------------------------|
|--------------------------------|
|--------------------------------|
|--7-7-6-7-------7-7-6-7---------|
|--5-5-4-5-------5-5-4-5---------|
|--------------------------------|

|-----------------------------|
|-----------------------------|
|-----------------------------|
|--7-7-6-7--7-6-7--7-6-7-6-5--|
|--5-5-4-5--5-4-5--5-4-5-4-3--|
|--5-5-4-5--5-4-5--5-4-5-4-3--|

|---------------------------------- -------------- ---------|
|---------------------------------- -------------- ---------|
|---------------------------------- -------------- ---------|
|--7-7-6-7--7-6-7--7-6-7-6-5------- -------------- ---------|
|--5-5-4-5--5-4-5--5-4-5-4-3--5-5-- --6-5-6--5-5-- --6-5-6--|
|--5-5-4-5--5-4-5--5-4-5-4-3--3-3-- --4-3-4--3-3-- --4-3-4--|

|-----------------------|
|-----------------------|
|-----------------------|
|--5----6----7----6-----|
|--5----6----7----6-----|
|--3----4----5----4-----|
nh.......... ..........
|-----------------------------------------------------------------------|
|-----------------------------------------------------------------------|
|-----------------------------------------------------------------------|
|--7-7-6-7--7-6-7--7-6-7-6-5--------------------------------------------|
|--5-5-4-5--5-4-5--5-4-5-4-3--5-5-----------6-5-6--5-5-----------6-5-6--|
|--5-5-4-5--5-4-5--5-4-5-4-3--3-33333333333-4-3-4--3-33333333333-4-3-4--|
Use these riffs until 1:45. Listen to the record for
structure and timing.




Ваше мнение



Капча