Artist: Kreator
Song: Living In Fear
Album: Endless Pain
Year: 1985

Tabbed by Jori Merilainen, send any corrections, suggestions
or questions to: [email protected]

Standard tuning: EADGBe

1) Intro:
G|----------------------------------|-----------------------------*--|
D|----------------------------------|-----------------------------5--|
A|------7h8-----5h7-----3h5-----2h3-|-----7h8-----5h7-----3h5-----3--|
E|--0-0-----0-0-----0-0-----0-0-----|-0-0-----0-0-----0-0-----0-0----|
. . . . . . . . . . . . . . . .
*last time let ring

1b) Intro fill:
G|---------------------------------------------------------------|
D|-------0h2p0h2p0h2------0h2p0h2p0h2------0h2p0h2p0h2-5-4-------|
A|--2-2--------------2-2--------------2-2--------------3-2--5-4--|
E|--0-0--------------0-0--------------0-0-------------------3-2--|

2a) Verse riff:
G|---------------------------------------------------------|
D|--9-----9-----9-----10-10-10-9-----9-----9-----12-12-12--|
A|--7-77777-77777-7777-8--8--8-7-77777-77777-777710-10-10--|
E|----....--....--....-----------....--....--....----------|

2b) Verse riff:
G|-------------------------------------------------------|
D|--9-----9-----9-----10-10-10-9-----9------7-7-7-5-5-5--|
A|--7-77777-77777-7777-8--8--8-7-77777-7777-5-5-5-3-3-3--|
E|----....--....--....-----------....--....--------------|

3) Chorus:
G|---------------------------------------------------------------|
D|--2-------4-------5-------------2-------4-------5-------7-7-7--|
A|--0-0000002-2222223-3333333-3-3-0-0000002-2222223-3333335-5-5--|
E|----......--......--......1-1-1---......--......--......-------|

4a) Post chorus:
G|--------------------------|
D|--9------7------9------7--|
A|--7------5------7------5--|
E|--------------------------|

4b)
G|------------------------------------------------|
D|--9-9---7-7---4---------------5-----------------|
A|--7-7---5-5---2-222222222222223-33333333333333--|
E|----------------..............--..............--|

End song with E5.




Ваше мнение



Капча