Artist: Kreator
Song: Dying Victims
Album: Endless Pain
Year: 1985

Tabbed by Jori Merilainen, send any corrections, suggestions
or questions to: [email protected]

Standard tuning EADGBe

Here's another one from Kreator's Endless Pain, and it's also
one of the best from the album. What more can I say?

1a) Intro: (w/clean tone)
e|---------------------| |------------------------|
B|---------------------| |------------------------|
G|--0---0-----------2--| |------0-----0--------2--|
D|----0----0------2----| |----2-----0--------2----|
A|-----------3--0------| |--3-----2--------0------|
E|---------------------| |--------------3---------|
|Intro rhytm: (w/dist.)
e|---------------------| |------------------------|
B|---------------------| |------------------------|
G|--------------2------| |--5-----4--------2------|
D|--------------2------| |--5-----4-----5--2------|
A|--------------0------| |--3-----2-----5--0------|
E|---------------------| |--------------3---------|
1b)
e|---------------------------------|
B|------------------------1--------|
G|------0-----0--------2----2------|
D|----2-----0--------2--------2----|
A|--3-----2--------0------------0--|
E|--------------3------------------|

2) Riff 1:
G|---------------------------------|
D|------------------------------6--|
A|------8/7-----7/6-----8/7-----6--|
E|--0-0-----0-0-----0-0-----0-0-8--|
. . . . . . . .

3) Verse riff: (Play this 3 times... 4th time play this)
G|------------------------------------| |------------------------|
D|------------------------------------| |------------------2--4--|
A|---------------------------4--5--4--| |------------------0--2--|
E|--000000000000000000000000-2--3--2--| |--000000000000000-------|
........................ ...............

4) Pre-Chorus:
G|-------------------------------------------------------------------------|
D|--7-----------------5----------------------------------------------------|
A|--5-55555555555555553-33333333333333332-----------------------------2-2--|
E|--------------------------------------0-00000000000000000000000000000-0--|
................ ................ ............................. .

5) Chorus:
G|--------------------------------------------------------------------|
D|--4-------4-------4-------4-----------------------------------------|
A|--2-2222222-2222222-2222222-2222222-------2-------2-------2---------|
E|----------------------------------0-0000000-0000000-0000000-000000--|
...... ...... ...... ...... ...... ....... ...... ......

6) Solo rhytm:
G|-----------------------------------------------------------|
D|--2------2------2------2------4------4------5------7-------|
A|--0--0-0-0--0-0-0--0-0-0--0-0-2--0-0-2--0-0-3--0-0-5--0-0--|
E|-----.-.----.-.----.-.----.-.----.-.----.-.----.-.----.-.--|

7a) Outro:
G|---------------------------------------------|
D|----------------10--9----------------12--11--|
A|--2------2-------8--7--5------5------10---9--|
E|--0--0-0-0-------------3--3-3-3--------------|
. . . .
7b)
G|-----------------------------------------------------------------|
D|--------------------------10--9--------------------------12--11--|
A|--2-------2-------2--------8--7--5-------5-------5-------10---9--|
E|--0-0-0-0-0-0-0-0-0-0-0-0--------3-3-3-3-3-3-3-3-3-3-3-3---------|
. . . . . . . . . . . . . . . . . .

End with E5 (022xxx)




Ваше мнение



Капча