Artist: Kreator
Song: Cry War
Album: Endless Pain
Year: 1985

Tabbed by Jori Merilainen, send any corrections, suggestions
or questions to: [email protected]

Standard tuning: EADGBe

One of the first Kreator songs ever, even appeared at their first
demo when they were still known as Tormentor. In my opinion, this
is one of the best from the album and a Kreator-classic.

1) Main riff:
G|---------------------------------------3-2------|
D|----------------------2---0-2-0-2----------3-2--|
A|-x/-2---222-2-2---x/--0---0-0-0-0-0-0-0---------|
E|-x/-0---000-0-0---x/--------------.-.-.---------|
1b)
This is just a variation of the main riff, this is where
Mille fucks around with the whammy bar.
G|---------------------------------------3-2------|
D|----------------------2---0-2-0-2----------3-2--|
A|-x/-2(dive w/bar)-x/--0---0-0-0-0-0-0-0---------|
E|-x/-0-------------x/--------------.-.-.---------|

2) Verse riff:
Basically the same as the main riff, but with palm-muting.
(last time end with E5)
G|------------------------------------------------------3-2------|
D|-------------------------------2--------------------------3-2--|
A|-2--------------------------x/-0--0-0-0-0-0-0-0-0-0-0----------|
E|-0--0-0-0-0-0-0-0-0-0-0-0-0-x/----.-.-.-.-.-.-.-.-.-.----------|
. . . . . . . . . . . .

2) Pre-chorus: (use tremolo picking)
G|------------------------------------|
D|--99999999999977779999999912-10-12--|
A|--77777777777755557777777710--9-10--|
E|------------------------------------|

3) Chorus: End fill: (last time don't play this)
G|-----------------------| |--------------------|
D|--5-------7-------9-9--| |--------------------|
A|--3-3333335-5555557-7--| |--7777777777777777--|
E|----......--......-----| |--................--|

4) Solo rhytm:
G|-------------------------------*--|
D|--9----------------------------9--|
A|--7-7777777777777777777777777777--|
E|----...........................---|
*last time let ring

THE END.




Ваше мнение



Капча