Artist: Kreator
Song: Intro / Choir Of The Damned
Album: Pleasure To Kill
Year: 1986

Tabbed by Jori Merilainen, send any corrections, suggestions
or questions to: [email protected]

Tune down one whole step (DGCFAd)

I've tabbed only the first lead guitar part, maybe I'll tab
the rhytm guitar and the acoustic part later.

d|---------------------------------------------------------------------------|
A|--15-14-12-15-14-12-15-14-12-15-14-12----13-12----13-12----13-12-----------|
F|--------------------------------------14-------14-------14-------12-13-14--|
C|---------------------------------------------------------------------------|
G|---------------------------------------------------------------------------|
D|---------------------------------------------------------------------------|

Play this 2 times:
d|-------------------------------------------------------------------------|
A|----------------10--------------------------------10----------13-12------|
F|--12-11-9-12-11----12-11-9-12-11----12-11-9-12-11----11-12-14-------12---|
C|---------------------------------12--------------------------------------|
G|-------------------------------------------------------------------------|
D|-------------------------------------------------------------------------|

Play this also 2 times:
d|----------------9---------------9---------------9-12-11-9-----------|
A|--12-11-9-12-11---12-11-9-12-11---12-11-9-12-11-----------12-11-9---|
F|--------------------------------------------------------------------|
C|--------------------------------------------------------------------|
G|--------------------------------------------------------------------|
D|--------------------------------------------------------------------|

And that's it for now!




Ваше мнение



Капча