Artist: Kreator
Title: Betrayer
Album: Extreme Aggression
Transcribed by: Stefanos Danakos
Email: [email protected]
Web site: http://www.metalprovider.com/sdanakos
V. 1.0
14/12/2001
Tab notation:
p = pull-off X = dead note (left hand)
h = hammer-on * = palm mute (right hand)
t = tap-on . = slight palm mute
X = pick slide NH = natural harmonic
~ = vibrato PH = pinch harmonic
// = tremolo bar vibrato AH = artificial harmonic
/ = slide up ( ) = ghost note/bend note
= slide down tr = trill
^ = bend tm = trem picking
^r = bend and release * = special note/info
g.^ = gradual bend S = rest
Tuning :

(6) = E (3) = G
(5) = A (2) = B
(4) = D (1) = e

INTRO:
->(0:00-0:12) Tempo I = Fast
e)|--------------------------------------------------------------------------------------------------|
B)|--------------------------------------------------------------------------------------------------|
G)|--------------------------------------------------------------------------------------------------|
D)|---------2--------------------8--------------------2--------------------8-------------------------| Gtr. I & II
A)|---------2--------------------6--------------------2--------------------6-------------------------|
E)|-7-6-5-6-0------------7-6-5-6--------------7-6-5-6-0------------7-6-5-6----------7-6-5-6-7-6-5-0--|
* * * * * * * * * * * * * * * * * * * * * * * *
PRE-VERSE:
->(0:12-0:16) Tempo II = Very Fast (About 240)
e)|--------------------------------------------------------------------------------------------------------------|
B)|--------------------------------------------------------------------------------------------------------------|
G)|--------------------------------------------------------------------------------------------------------------|
D)|-7-------------8-------------------------------------7-------------8------------------------------------------| Gtr. I
A)|-5-------------6-------------------------------------5-------------6-------------4------------7--6------------|
E)|---0-0-0-0-0-0---0-0-0-0-0-0-7--6--5--6--7--6--5--0----0-0-0-0-0-0---0-0-0-0-0-0-2------------5--4------------|
* * * * * * * * |
e)|--------------------------------------------------------------------------------------------------------------|
B)|--------------------------------------------------------------------------------------------------------------|
G)|--------------------------------------------------------------------------------------------------------------|
D)|-7---S-----------------------------------------------7---S----------------------------------------------------| Gtr. II
A)|-5---------------------------------------------------5----------------------------------------7--6------------|
E)|----------------------------------------------------------------------------------------------5--4------------|
->(0:16-0:28)
Play Riff x 3 times
e)|--------------------------------------------------------------------------------------------------------------|
B)|--------------------------------------------------------------------------------------------------------------|
G)|--------------------------------------------------------------------------------------------------------------|
D)|-7-------------8-------------------------------------7-------------8------------------------------------------| Gtr. I & II
A)|-5-------------6-------------------------------------5-------------6-------------4------------7--6------------|
E)|---0-0-0-0-0-0---0-0-0-0-0-0-7--6--5--6--7--6--5--0----0-0-0-0-0-0---0-0-0-0-0-0-2------------5--4------------|
* * * * * * * *
VERSE:
->(0:28-0:36)
e)|-----------------------------------------------------------------------------------------------------------------|
B)|-----------------------------------------------------------------------------------------------------------------|
G)|---------------------------------------------------------5-------------------------------------------------------|
D)|---------------------------------------------4------4----3------------------------------------------4------4-----| Gtr. I & II
A)|-3-3-0-0-0-0-0-0-3-3-2-2-0-0-0-0-2-2-0-0-0-0-2------2-------0-0-0-0-0-0-3-3-2-2-0-0-0-0-2-2-0-0-0-0-2------2-----|
E)|-----------------------------------------------------------------------------------------------------------------|
* * * * * * * * * * * * * * * * * * * * * * * * * * * * * * * * * * * * * * * * * *
e)|----------------------------------------------------------------------------------------------------------------|
B)|----------------------------------------------------------------------------------------------------------------|
G)|-5------------------------------------------------------5-------------------------------------------------------|
D)|-3------------------------------------------4------4----3------------------------------------------4------4-----| Gtr. I & II
A)|----0-0-0-0-0-0-3-3-2-2-0-0-0-0-2-2-0-0-0-0-2------2-------0-0-0-0-0-0-3-3-2-2-0-0-0-0-2-2-0-0-0-0-2------2-----|
E)|----------------------------------------------------------------------------------------------------------------|
* * * * * * * * * * * * * * * * * * * * * * * * * * * * * * * * * * * * * * * *
PRE-CHORUS:
->(0:36-0:44)
e)|--------------------------------------------------------------------------------------------|
B)|--------------------------------------------------------------------------------------------|
G)|--------------------------------------------------------------------------------------------|
D)|-7--------------------------7--6--4--6--------7--------------------------7--6--4--6---------| Gtr. I & II
A)|-5--5-5-5-5-5-5-5-5-5-5-5-5-5--4--2--4--------5--5-5-5-5-5-5-5-5-5-5-5-5-5--4--2--4---------|
E)|--------------------------------------------------------------------------------------------|
* * * * * * * * * * * * * * * * * * * * * * * *
e)|--------------------------------------------------------------------------------------------|
B)|--------------------------------------------------------------------------------------------|
G)|--------------------------------------------------------------------------------------------|
D)|-7--------------------------7--6--4--6--------7--------------------------7--------6---------| Gtr. I & II
A)|-5--5-5-5-5-5-5-5-5-5-5-5-5-5--4--2--4--------5--5-5-5-5-5-5-5-5-5-5-5-5-5--8--7--4--7--6---|
E)|----------------------------------------------------------------------------6--5-----5--4---|
* * * * * * * * * * * * * * * * * * * * * * * * * * * * * *
CHORUS:
->(0:45-0:53)
e)|---------------------------------------------------------------------------------------------|
B)|---------------------------------------------------------------------------------------------|
G)|-----------------------------------------------------------------------------------8---------|
D)|-9----------------------------------7-----------9----------------------------------6---------| Gtr. I & II
A)|-7----------------------------------5-----------7--------------------------------------------|
E)|------7--6--5--0--5--6--7--6--5--0-----7--6--5-------7--6--5--0--5--6--7--6--5--0------------|
* * * * * * * * * * * * * * * * * * * * * * *
e)|---------------------------------------------------------------------------------------------|
B)|---------------------------------------------------------------------------------------------|
G)|---------------------------------------------------------------------------------------------|
D)|-9----------------------------------7-----------9--------------------------------------------| Gtr. I & II
A)|-7----------------------------------5-----------7----------------------------------3----5----|
E)|------7--6--5--0--5--6--7--6--5--0-----7--6--5-------7--6--5--0--5--6--7--6--5--0--1----3----|
* * * * * * * * * * * * * * * * * * * * * * *
BRIDGE:
->(0:54-1:04)
e)|--------------------------------------------------------------------------------------------------------------|
B)|--------------------------------------------------------------------------------------------------------------|
G)|--------------------------------------------------------------------------------------------------------------|
D)|-7-------------8-------------------------------------7-------------8------------------------------------------| Gtr. I & II
A)|-5-------------6-------------------------------------5-------------6-------------4------------7--6------------|
E)|---0-0-0-0-0-0---0-0-0-0-0-0-7--6--5--6--7--6--5--0----0-0-0-0-0-0---0-0-0-0-0-0-2------------5--4------------|
* * * * * * * *
e)|--------------------------------------------------------------------------------------------------------------------------|
B)|--------------------------------------------------------------------------------------------------------------------------|
G)|--------------------------------------------------------------------------------------------------------------------------|
D)|-7-------------8-------------------------------------7-------------8------------------------------------------------------| Gtr. I & II
A)|-5-------------6-------------------------------------5-------------6-------------4----4----4----4----6----6----6----6-----|
E)|---0-0-0-0-0-0---0-0-0-0-0-0-7--6--5--6--7--6--5--0----0-0-0-0-0-0---0-0-0-0-0-0-2----2----2----2----4----4----4----4-----|
* * * * * * * * * * * * * * * *
CHORUS:
->(1:04-1:13)
e)|---------------------------------------------------------------------------------------------|
B)|---------------------------------------------------------------------------------------------|
G)|-----------------------------------------------------------------------------------8---------|
D)|-9----------------------------------7-----------9----------------------------------6---------| Gtr. I & II
A)|-7----------------------------------5-----------7--------------------------------------------|
E)|------7--6--5--0--5--6--7--6--5--0-----7--6--5-------7--6--5--0--5--6--7--6--5--0------------|
* * * * * * * * * * * * * * * * * * * * * * *
e)|---------------------------------------------------------------------------------------------|
B)|---------------------------------------------------------------------------------------------|
G)|---------------------------------------------------------------------------------------------|
D)|-9----------------------------------7-----------9--------------------------------------------| Gtr. I & II
A)|-7----------------------------------5-----------7----------------------------------3----5----|
E)|------7--6--5--0--5--6--7--6--5--0-----7--6--5-------7--6--5--0--5--6--7--6--5--0--1----3----|
* * * * * * * * * * * * * * * * * * * * * * *
VERSE:
->(1:13-1:20)
e)|-----------------------------------------------------------------------------------------------------------------|
B)|-----------------------------------------------------------------------------------------------------------------|
G)|---------------------------------------------------------5-------------------------------------------------------|
D)|---------------------------------------------4------4----3------------------------------------------4------4-----| Gtr. I & II
A)|-3-3-0-0-0-0-0-0-3-3-2-2-0-0-0-0-2-2-0-0-0-0-2------2-------0-0-0-0-0-0-3-3-2-2-0-0-0-0-2-2-0-0-0-0-2------2-----|
E)|-----------------------------------------------------------------------------------------------------------------|
* * * * * * * * * * * * * * * * * * * * * * * * * * * * * * * * * * * * * * * * * *
e)|----------------------------------------------------------------------------------------------------------------|
B)|----------------------------------------------------------------------------------------------------------------|
G)|-5------------------------------------------------------5-------------------------------------------------------|
D)|-3------------------------------------------4------4----3------------------------------------------4------4-----| Gtr. I & II
A)|----0-0-0-0-0-0-3-3-2-2-0-0-0-0-2-2-0-0-0-0-2------2-------0-0-0-0-0-0-3-3-2-2-0-0-0-0-2-2-0-0-0-0-2------2-----|
E)|----------------------------------------------------------------------------------------------------------------|
* * * * * * * * * * * * * * * * * * * * * * * * * * * * * * * * * * * * * * * *
PRE-CHORUS:
->(1:21-1:29)
e)|--------------------------------------------------------------------------------------------|
B)|--------------------------------------------------------------------------------------------|
G)|--------------------------------------------------------------------------------------------|
D)|-7--------------------------7--6--4--6--------7--------------------------7--6--4--6---------| Gtr. I & II
A)|-5--5-5-5-5-5-5-5-5-5-5-5-5-5--4--2--4--------5--5-5-5-5-5-5-5-5-5-5-5-5-5--4--2--4---------|
E)|--------------------------------------------------------------------------------------------|
* * * * * * * * * * * * * * * * * * * * * * * *
e)|--------------------------------------------------------------------------------------------|
B)|--------------------------------------------------------------------------------------------|
G)|--------------------------------------------------------------------------------------------|
D)|-7--------------------------7--6--4--6--------7--------------------------7--------6---------| Gtr. I & II
A)|-5--5-5-5-5-5-5-5-5-5-5-5-5-5--4--2--4--------5--5-5-5-5-5-5-5-5-5-5-5-5-5--8--7--4--7--6---|
E)|----------------------------------------------------------------------------6--5-----5--4---|
* * * * * * * * * * * * * * * * * * * * * * * * * * * * * *
CHORUS:
->(1:30-1:39)
e)|---------------------------------------------------------------------------------------------|
B)|---------------------------------------------------------------------------------------------|
G)|-----------------------------------------------------------------------------------8---------|
D)|-9----------------------------------7-----------9----------------------------------6---------| Gtr. I & II
A)|-7----------------------------------5-----------7--------------------------------------------|
E)|------7--6--5--0--5--6--7--6--5--0-----7--6--5-------7--6--5--0--5--6--7--6--5--0------------|
* * * * * * * * * * * * * * * * * * * * * * *
e)|---------------------------------------------------------------------------------------------|
B)|---------------------------------------------------------------------------------------------|
G)|---------------------------------------------------------------------------------------------|
D)|-9----------------------------------7-----------9--------------------------------------------| Gtr. I & II
A)|-7----------------------------------5-----------7----------------------------------3----5----|
E)|------7--6--5--0--5--6--7--6--5--0-----7--6--5-------7--6--5--0--5--6--7--6--5--0--1----3----|
* * * * * * * * * * * * * * * * * * * * * * *
INTERLUDE:
->(1:39-2:07) Tempo I = Slower
e)|----------------------------------------------------------------------------------------------------|
B)|----------------------------------------------------------------------------------------------------|
G)|----------------------------------------------------------------------------------------------------|
D)|-2------------2------------2------------------6-----------------------------------------------------| Gtr. I
A)|-2------------2------------2------------------4---4------------4------------4------------------5----|
E)|-0----0-0-0-0-0----0-0-0-0-0----0-0-0-0-0-0-0-----2----2-2-2-2-2----2-2-2-2-2----2-2-2-2-2-2-2-3----|
* * * * * * * * * * * * * * * * * * * * * * * * * * * * * * |
e)|----------------------------------------------------------------------------------------------------|
B)|----------------------------------------------------------------------------------------------------|
G)|---------------------------------------------r-e-s-t------------------------------------------------|
D)|----------------------------------------------------------------------------------------------------| Gtr. II
A)|----------------------------------------------------------------------------------------------------|
E)|----------------------------------------------------------------------------------------------------|
e)|-------------------------------------------------------------------------------------------------------|
B)|-------------------------------------------------------------------------------------------------------|
G)|-------------------------------------------------------------------------------------------------------|
D)|-2------------2------------2------------------6------------------------------------------8-------------| Gtr. I
A)|-2------------2------------2------------------4---4------------4------------3------------6----6-6-6-6--|
E)|-0----0-0-0-0-0----0-0-0-0-0----0-0-0-0-0-0-0-----2----2-2-2-2-2----2-2-2-2-1----1-1-1-1---------------|
* * * * * * * * * * * * * * * * * * * * * * * * * * * * * * * |
e)|-------------------------------------------------------------------------------------------------------|
B)|-------------------------------------------------------------------------------------------------------|
G)|---------------------------------------------r-e-s-t---------------------------------------------------|
D)|-------------------------------------------------------------------------------------------------------| Gtr. II
A)|-------------------------------------------------------------------------------------------------------|
E)|----------------------------------------------------------------------------------------------12------|
*Drums enter
e)|----------------------------------------------------------------------------------------------------|
B)|----------------------------------------------------------------------------------------------------|
G)|----------------------------------------------------------------------------------------------------|
D)|-2------------2------------2------------------6-----------------------------------------------------| Gtr. I & II
A)|-2------------2------------2------------------4---4------------4------------4------------------5----|
E)|-0----0-0-0-0-0----0-0-0-0-0----0-0-0-0-0-0-0-----2----2-2-2-2-2----2-2-2-2-2----2-2-2-2-2-2-2-3----|
* * * * * * * * * * * * * * * * * * * * * * * * * * * * * *
e)|-------------------------------------------------------------------------------------------------------|
B)|-------------------------------------------------------------------------------------------------------|
G)|-------------------------------------------------------------------------------------------------------|
D)|-2------------2------------2------------------6------------------------------------------8-------------| Gtr. I & II
A)|-2------------2------------2------------------4---4------------4------------3------------6----6-6-6-6--|
E)|-0----0-0-0-0-0----0-0-0-0-0----0-0-0-0-0-0-0-----2----2-2-2-2-2----2-2-2-2-1----1-1-1-1---------------|
* * * * * * * * * * * * * * * * * * * * * * * * * * * * * * *
SOLO PART 1:
->(2:07-2:21)
e)|----------------------------------------------------------------------------------------------------|
B)|----------------------------------------------------------------------------------------------------|
G)|----------------------------------------------------------------------------------------------------|
D)|-2------------2------------2------------------6-----------------------------------------------------| Gtr. I & II
A)|-2------------2------------2------------------4---4------------4------------4------------------5----|
E)|-0----0-0-0-0-0----0-0-0-0-0----0-0-0-0-0-0-0-----2----2-2-2-2-2----2-2-2-2-2----2-2-2-2-2-2-2-3----|
* * * * * * * * * * * * * * * * * * * * * * * * * * * * * *
e)|------------------------------------------------------------------------------------------------------------------------------------------|
B)|------------------------------------------------------------------------------------------------------------------------------------------|
G)|-12-11-9---------12-11-9---------12-11-9---------12-11-9---------14-12-11----------14-12-11----------14-12-11----------14-12-11-----------|
D)|---------12-11-9---------12-11-9---------12-11-9---------12-11-9----------14-12-11----------14-12-11----------14-12-11----------14-12-11--| Gtr. III
A)|------------------------------------------------------------------------------------------------------------------------------------------|
E)|------------------------------------------------------------------------------------------------------------------------------------------|
*-->Slight PM all the the notes , played with downstrokes optionally.
e)|-------------------------------------------------------------------------------------------------------|
B)|-------------------------------------------------------------------------------------------------------|
G)|-------------------------------------------------------------------------------------------------------|
D)|-2------------2------------2------------------6------------------------------------------8-------------| Gtr. I & II
A)|-2------------2------------2------------------4---4------------4------------3------------6----6-6-6-6--|
E)|-0----0-0-0-0-0----0-0-0-0-0----0-0-0-0-0-0-0-----2----2-2-2-2-2----2-2-2-2-1----1-1-1-1---------------|
* * * * * * * * * * * * * * * * * * * * * * * * * * * * * * *
e)|--------------------------------------------------------------------------------------------------------------------------------------|
B)|--------------------------------------------------------------------------------------------------------------------------------------|
G)|-12-11-9---------12-11-9---------12-11-9---------12-11-9---------14-12-11----------14-12-11----------12-11-9---------12-11-9----------|
D)|---------12-11-9---------12-11-9---------12-11-9---------12-11-9----------14-12-11----------14-12-11---------12-11-9---------12-11-9--| Gtr. III
A)|--------------------------------------------------------------------------------------------------------------------------------------|
E)|--------------------------------------------------------------------------------------------------------------------------------------|
->(2:21-2:35)
e)|----------------------------------------------------------------------------------------------------|
B)|----------------------------------------------------------------------------------------------------|
G)|----------------------------------------------------------------------------------------------------|
D)|-2--------------------------------------------6-----------------------------------------------------| Gtr. I & II
A)|-2--------------------------------------------4---4--------------------------------------------5----|
E)|-0------------------------------------------------2--------------------------------------------3----|
e)|------------------------------------------------------------------------------------------------------------------------------------------|
B)|------------------------------------------------------------------------------------------------------------------------------------------|
G)|-12-11-9---------12-11-9---------12-11-9---------12-11-9---------14-12-11----------14-12-11----------14-12-11----------14-12-11-----------|
D)|---------12-11-9---------12-11-9---------12-11-9---------12-11-9----------14-12-11----------14-12-11----------14-12-11----------14-12-11--| Gtr. III
A)|------------------------------------------------------------------------------------------------------------------------------------------|
E)|------------------------------------------------------------------------------------------------------------------------------------------|
e)|--------------------------------------------------------------------------------------------------------------------------------------------------|
B)|--------------------------------------------------------------------------------------------------------------------------------------------------|
G)|-16-14-12----------16-14-12----------16-14-12----------16-14-12----------17-16-14----------17-16-14----------17-16-14----------17-16-14-----------|
D)|----------16-14-12----------16-14-12----------16-14-12----------16-14-12----------17-16-14----------17-16-14----------17-16-14----------17-16-14--| Gtr. IV
A)|--------------------------------------------------------------------------------------------------------------------------------------------------|
E)|--------------------------------------------------------------------------------------------------------------------------------------------------|
e)|------------------------------------------------------------------------------------------------------|
B)|------------------------------------------------------------------------------------------------------|
G)|------------------------------------------------------------------------------------------------------|
D)|-2--------------------------------------------6------------------------------------------8------------| Gtr. I & II
A)|-2--------------------------------------------4---4-------------------------3------------6------------|
E)|-0------------------------------------------------2-------------------------1-------------------------|
e)|--------------------------------------------------------------------------------------------------------------------------------------|
B)|--------------------------------------------------------------------------------------------------------------------------------------|
G)|-12-11-9---------12-11-9---------12-11-9---------12-11-9---------14-12-11----------14-12-11----------12-11-9---------12-11-9----------|
D)|---------12-11-9---------12-11-9---------12-11-9---------12-11-9----------14-12-11----------14-12-11---------12-11-9---------12-11-9--| Gtr. III
A)|--------------------------------------------------------------------------------------------------------------------------------------|
E)|--------------------------------------------------------------------------------------------------------------------------------------|
e)|--------------------------------------------------------------------------------------------------------------------------------------------------|
B)|--------------------------------------------------------------------------------------------------------------------------------------------------|
G)|-16-14-12----------16-14-12----------16-14-12----------16-14-12----------17-16-14----------17-16-14----------16-14-12----------16-14-12-----------|
D)|----------16-14-12----------16-14-12----------16-14-12----------16-14-12----------17-16-14----------17-16-14----------16-14-12----------16-14-12--| Gtr. IV
A)|--------------------------------------------------------------------------------------------------------------------------------------------------|
E)|--------------------------------------------------------------------------------------------------------------------------------------------------|
SOLO PART 2:
->(2:35-2:49)
e)|----------------------------------------------------------------------------------------------------|
B)|----------------------------------------------------------------------------------------------------|
G)|----------------------------------------------------------------------------------------------------|
D)|-2------------2------------2------------------6-----------------------------------------------------| Gtr. I & II
A)|-2------------2------------2------------------4---4------------4------------4------------------5----|
E)|-0----0-0-0-0-0----0-0-0-0-0----0-0-0-0-0-0-0-----2----2-2-2-2-2----2-2-2-2-2----2-2-2-2-2-2-2-3----|
* * * * * * * * * * * * * * * * * * * * * * * * * * * * * *
e)|----------------------------------------------------------------------------------------------------|
B)|-------------------------------------------------/12--14--15--14--12--------------------/Half------|
G)|-12~--------------------(24)------------------------------------------12--11--12--11--12(13)-r(12)--|
D)|---------------------Feedback---------------------------------------------------------AH------------| Gtr. III
A)|-Semi-----------------------------------------------------------------------------------------------|
E)|--AH------------------------------------------------------------------------------------------------|
e)|-------------------------------------------------------------------------------------------------------|
B)|-------------------------------------------------------------------------------------------------------|
G)|-------------------------------------------------------------------------------------------------------|
D)|-2------------2------------2------------------6------------------------------------------8-------------| Gtr. I & II
A)|-2------------2------------2------------------4---4------------4------------3------------6----6-6-6-6--|
E)|-0----0-0-0-0-0----0-0-0-0-0----0-0-0-0-0-0-0-----2----2-2-2-2-2----2-2-2-2-1----1-1-1-1---------------|
* * * * * * * * * * * * * * * * * * * * * * * * * * * * * * *
e)|--------------------------------------------------|_____________________NH_____________________|---|
B)|-5-4-2------------------------------------------------5--------------------------------------------|
G)|-------5-3-2-------------5-3-2--------------------5-----------5------------------------------------|
D)|-------------5-4-2-------------5-4-2----------------------5-----------5-----------5-------5--------| Gtr. III
A)|-------------------5-4-2-------------5-4-2------------------------5-----------5-------5-------5----|
E)|-------------------------------------------5-4-2--------------------------5------------------------|
* * * * * * * * * * * * * * * * * * * * * * * *
SOLO PART 3:
->(2:49-3:03) Tempo II = Much Faster
e)|--------------------------------------------------------------------------------------------------|
B)|--------------------------------------------------------------------------------------------------|
G)|--------------------------------------------------------------------------------------------------|
D)|-------------------------7-/8--7-----------------------------------------7-/8--7------------------| Gtr. I & II
A)|-8--8--7-----------------5-/6--5-----------------8--8--7-----------------5-/6--5------------------|
E)|----------0--0--0--0--0-----------0--0--0--0--0-----------0--0--0--0--0-----------0--0--0--0--0---|
* * * * * * * * * * * * * * * * * * * *
e)|----------------------------------------------------------------------------------------------17----------|
B)|-----------------------------------------------------1717171719191919202020201919191920202020-----20~-----|
G)|------------------------------------------14--------------------------------------------------------------|
D)|-1414141416161616171717171616161617171717-----17~---------------------------------------------------------| Gtr. III
A)|-----------------------------------------------------|____________tremolo picking___________|-------------|
E)|-|__________tremolo picking_____________|-----------------------------------------------------------------|
e)|--------------------------------------------------------------------------------------------------|
B)|--------------------------------------------------------------------------------------------------|
G)|--------------------------------------------------------------------------------------------------|
D)|-------------------------4--4--5-----------------------------------------4--4--5------------------| Gtr. I & II
A)|-4-----------------------2--2--3--0--0--0--0--0--4-----------------------2--2--3--0--0--0--0--0---|
E)|-2--2--2--2--2--2--2--2--------------------------2--2--2--2--2--2--2--2---------------------------|
* * * * * * * * * * * * * * * * * * * * * * * *
e)|--------14--------14--------14--------14-----------171717171515151514141414--------------------------------------|
B)|-17^(19)---17^(19)---17^(19)---17^(19)---17^(19)r---------------------------171717171515151514141414-------------|
G)|----Full------Full------Full------Full------Full-----------------------------------------------------16----14----|
D)|-----------------------------------------------------------------------------------------------------------------| Gtr. III
A)|---------------------------------------------------|________________tremolo picking________________|-------------|
E)|-----------------------------------------------------------------------------------------------------------------|
e)|--------------------------------------------------------------------------------------------------|
B)|--------------------------------------------------------------------------------------------------|
G)|--------------------------------------------------------------------------------------------------|
D)|-------------------------4--4--5-----------------------------------------4--4--5------------------| Gtr. I & II
A)|-4-----------------------2--2--3--0--0--0--0--0--4-----------------------2--2--3--0--0--0--0--0---|
E)|-2--2--2--2--2--2--2--2--------------------------2--2--2--2--2--2--2--2---------------------------|
* * * * * * * * * * * * * * * * * * * * * * * *
e)|-------------------------16^----(18)--------r----------------------------18-/////////-----|
B)|--------------------------------Full-------------------------------------------bar-vibrato--------|
G)|--16^-----(18)-------r----------------------------------------------------------------------------|
D)|----------Full------------------------------------------------------------------------------------| Gtr. III
A)|--------------------------------------------------------------------------------------------------|
E)|-------------------------------------------------0-----ar-dive----------------------------------|
VERSE:
->(3:03-3:21)
e)|----------------------------------------------------------------------------------------------------|
B)|----------------------------------------------------------------------------------------------------|
G)|----------------------------------------------------------------------------------------------------|
D)|-------------------------7-/8--7---------------------------10--8--7---------------------------------| Gtr. I & II
A)|-8--8--7-----------------5-/6--5-----------------10--8--7------------10--8--7-----------------7~----|
E)|----------0--0--0--0--0-----------0--0--0--0--0--------------------------------10--8--7--8-10-------|
* * * * * * * * * * * * * * * * * * * * * * * *
e)|----------------------------------------------------------------------------------------------------|
B)|----------------------------------------------------------------------------------------------------|
G)|----------------------------------------------------------------------------------------------------|
D)|-------------------------7-/8--7---------------------------10--8--7---------------------------------| Gtr. I & II
A)|-7--8--7-----------------5-/6--5-----------------10--8--7------------10--8--7-----------------7~----|
E)|----------0--0--0--0--0-----------0--0--0--0--0--------------------------------10--8--7--8-10-------|
* * * * * * * * * * * * * * * * * * * * * * * *
Play Riff x 2 times
e)|--------------------------------------------------------------------------------------------------|
B)|--------------------------------------------------------------------------------------------------|
G)|--------------------------------------------------------------------------------------------------|
D)|-------------------------4--4--5-----------------------------------------4--4--5------------------| Gtr. I & II
A)|-4--4--4-----------------2--2--3--0--0--0--0--0--4--4--4-----------------2--2--3--0--0--0--0--0---|
E)|-2--2--2--2--2--2--2--2--------------------------2--2--2--2--2--2--2--2---------------------------|
* * * * * * * * * * * * * * * * * * * *
OUTRO:
->(3:21-3:30)
e)|----------------------------------------------------------------------------------------------------------------------|
B)|----------------------------------------------------------------------------------------------------------------------|
G)|------------------------------------------------------------------------------------------------------9--10-----------|
D)|-7-------------8---------------------------------------------7-------------8-------------9------------7--8------------| Gtr. I & II
A)|-5-------------6---------------------------------------------5-------------6-------------7----------------------------|
E)|---0-0-0-0-0-0---0-0-0-0-0-0-0-0-0-0-0-0-0-0-0-0-0-0-0-0-0-0---0-0-0-0-0-0---0-0-0-0-0-0------------------------------|
e)|----------------------------------------------------------------------------------------------------------------------|
B)|----------------------------------------------------------------------------------------------------------------------|
G)|------------------------------------------------------------------------------------------------------9--8------------|
D)|-7-------------8---------------------------------------------7-------------8-------------9------------7--6------------| Gtr. I & II
A)|-5-------------6---------------------------------------------5-------------6-------------7----------------------------|
E)|---0-0-0-0-0-0---0-0-0-0-0-0-0-0-0-0-0-0-0-0-0-0-0-0-0-0-0-0---0-0-0-0-0-0---0-0-0-0-0-0------------------------------|
ENDING BRIDGE:
->(3:31-3:45)
e)|--------------------------------------------------------------------------------------------------------------|
B)|--------------------------------------------------------------------------------------------------------------|
G)|--------------------------------------------------------------------------------------------------------------|
D)|-7-------------8-------------------------------------7-------------8------------------------------------------| Gtr. I
A)|-5-------------6-------------------------------------5-------------6-------------4------------7--6------------|
E)|---0-0-0-0-0-0---0-0-0-0-0-0-7--6--5--6--7--6--5--0----0-0-0-0-0-0---0-0-0-0-0-0-2------------5--4------------|
* * * * * * * * |
e)|--------------------------------------------------------------------------------------------------------------|
B)|--------------------------------------------------------------------------------------------------------------|
G)|--------------------------------------------------------------------------------------------------------------|
D)|-7---S-----------------------------------------------7---S----------------------------------------------------| Gtr. II
A)|-5---------------------------------------------------5---------------------------4----------------------------|
E)|---------------------------------------------------------------------------------2----------------------------|
e)|--------------------------------------------------------------------------------------------------------------|
B)|--------------------------------------------------------------------------------------------------------------|
G)|--------------------------------------------------------------------------------------------------------------|
D)|-7-------------8-------------------------------------7-------------8------------------------------------------| Gtr. I & II
A)|-5-------------6-------------------------------------5-------------6-------------4------------7--6------------|
E)|---0-0-0-0-0-0---0-0-0-0-0-0-7--6--5--6--7--6--5--0----0-0-0-0-0-0---0-0-0-0-0-0-2------------5--4------------|
* * * * * * * *
e)|--------------------------------------------------------------------------------------------------------------------------|
B)|--------------------------------------------------------------------------------------------------------------------------|
G)|--------------------------------------------------------------------------------------------------------------------------|
D)|-7-------------8-------------------------------------7-------------8------------------------------------------------------| Gtr. I & II
A)|-5-------------6-------------------------------------5-------------6-------------4----4----4----4----6----6----6----6-----|
E)|---0-0-0-0-0-0---0-0-0-0-0-0-7--6--5--6--7--6--5--0----0-0-0-0-0-0---0-0-0-0-0-0-2----2----2----2----4----4----4----4-----|
* * * * * * * * * * * * * * * *
->(3:45-3:48)
e)|---------------------------------------------------------------|
B)|---------------------------------------------------------------|
G)|-----------------------rest------------------------------------|
D)|---------------------------------------------------------------| Gtr. I & II
A)|---------------------------------------------------------------|
E)|---------------------------------------------------------------|
OUTRO CHORUS:
->(3:48-3:59)
e)|---------------------------------------------------------------------------------------------|
B)|---------------------------------------------------------------------------------------------|
G)|-----------------------------------------------------------------------------------8---------|
D)|-9----------------------------------7-----------9----------------------------------6---------| Gtr. I & II
A)|-7----------------------------------5-----------7--------------------------------------------|
E)|------7--6--5--0--5--6--7--6--5--0-----7--6--5-------7--6--5--0--5--6--7--6--5--0------------|
* * * * * * * * * * * * * * * * * * * * * * *
e)|-------------------------------------------------------------------------------------------------------|
B)|-------------------------------------------------------------------------------------------------------|
G)|-------------------------------------------------------------------------------------------------------|
D)|-9----------------------------------7-----------9------------------------------------------------------| Gtr. I & II
A)|-7----------------------------------5-----------7----------------------------------3----5----2---------|
E)|------7--6--5--0--5--6--7--6--5--0-----7--6--5-------7--6--5--0--5--6--7--6--5--0--1----3----0---------|
* * * * * * * * * * * * * * * * * * * * * * *




Ваше мнение



Капча