Kreator - All Of The Same Blood
From the Album Violent Revolution
Copyright 2001 SPV
Version 1.0 - 11/01

Transcribed by: Paolo Pieri

For Questions, Comments, Newest Version, or Corrections contact
Paolo Pieri: at [email protected]

.. - palm mute / - slide up to
- slide down to ~ - vibrato
h - hammer on b - bend
p - pull off Suffixes for bend
ph - pinch harmonic
f - full bend h - half bend
* - see comment r - release t - tap bend
X - percussion mute ~ - vibrato bend
@ - slight palm mute () - ghost note, sustained note

Tune Gtr to D

All Of The Same Blood

Riff A
|-------------------------------------------------------------------------|
|-------------------------------------------------------------------------|
|-------------------------------------------------------------------------|Gtr I
|--------------------9--------9-7-------------7--------10-------------10~-|& II
|-7-777777-10-777777---777777-----10-9-888888---888888----888888-10-8-----|
|-------------------------------------------------------------------------|
...... ...... ...... . . . . ...... ...... . ...... . .

|----------------------------------------------------------------------------|
|----------------------------------------------------------------------------|
|----------------------------------------------------------------------------|
|--------------------9--------9-7-------------7----10--------------9------12-|
|-7-777777-10-777777---777777-----10-9-888888---88----101010101010---1010----|
|----------------------------------------------------------------------------|
...... ...... ...... . . . . ...... .. . . . . . . ..

Riff B
|----------------------------------------------------------------------|
|----------------------------------------------------------------------|GtrI
|----------------------------------------------------------------------| & II
|-------------------4-------------------------2--------5---------------|
|-2--------5--------2--------2-------3--------0--------3------------3~-|
|-0-000000-3-000000---000000---5-3-2-1-111111---111111---111111-3-1----|
...... ...... ...... . . . . ...... ...... ...... . .
|--------------------------------------------------------------------|
|--------------------------------------------------------------------|
|--------------------------------------------------------------------|
|-------------------4------------------------------------------------|
|-2--------5--------2--------2-------3-------------3-5-------------5-|
|-0-000000-3-000000---000000---5-3-2-1-111111-5-11---3-333333-7-33---|
...... ...... ...... . . . . ...... .. ...... ..

Riff C (Not sure about this)
|-----------------------------------------------------------|
|-----------------------------------------------------------|
|-----------------------------------------------------------|Gtr I
|-----------------------------------------------------------|& II
|-8-------------------8----------54---7-8-8----------7-8-8-|
|-6-66666666666666666-6-66666666-32---5-6-6-00000000-5-6-6-|
................. ........ ........
Riff D
|--------------------------------------------------------------------|
|--------------------------------------------------------------------|Gtr I
|--------------------------------------------------------------------| & II
|-5----------5/7-4----------4----------5----------5/7-4--------------|
|-3-33333333-3/5-2-22222222-2-22222222-3-33333333-3/5-2-222222-75---|
|--------------------------------------------------------------53---|
........ ........ ........ ........ ......
|--------------------------------------------------------------------|
|--------------------------------------------------------------------|
|--------------------------------------------------------------------|
|-5----------5/7-4----------4----------5----------5/7-4--------------|
|-3-33333333-3/5-2-22222222-2-22222222-3-33333333-3/5-2-222222-754-|
|--------------------------------------------------------------532-|
........ ........ ........ ........ ......
Riff E
|--------------------------------------|------------------------|
|--------------------------------------|------------------------|
|--------------------------------------|------------------------|
|--------------------------------------|-----------------8-10-7-|
|--------------------------------------|-----------------8-10-7-|
|-0000000000002222223333333333332222225|555555555553333336-8--5-|
....................................^.................
stop here the last time
|------| and restart riff B with
|------|




Ваше мнение



Капча