Riff-1
e---------------------------------------------------
b---------------------------------------------------
g----5/7---5/7---5/7----7---------------------------
D----5/7---5/5---5/5----7---------------------------
A----3/5---3/5---3/5----5---------------------------
E-0-0---0-0---0-0----0-0----------------------------
Riff-2
e----------------------------------------------------
b----------------------------------------------------
g-2-2-2-5-5-5-7-7-7-------2-2-2-5-5-5-7-7-7----------
D-2-2-2-5-5-5-7-7-7-2-2-2-2-2-2-5-5-5-7-7-7-5-5-5----
A-0-0-0-3-3-3-5-5-5-2-2-2-0-0-0-3-3-3-5-5-5-5-5-5----
E-------------------0-0-0-------------------3-3-3----
riff-1
Привет кенты, а вот и мы.
С дубовой сказкой - гы гы гы.
Яцына Павел вам сейчас.
Ее изложит всю за раз.
припев
riff-2
Сказка называется!
"Спящая Красавица"!
Но она там не в гробу!
И ее я не ебу!
А ее ебет Иван.
Распиздяй и наркоман.
Сорок пять бурундучков.
Семь богатырей кочков.
Пьяный дворник сексофил.
Чебуратор никрофил.
А еще ефрейтор Сруль.
В синих ластах и носках.
припев
Сказка называется!
"Спящая Красавица"!
Но она там не в гробу!
И ее я не ебу!
Я открою вас секрет.
Что сюжета в сказке нет.
Он ушел еще вчера.
В синих ластах и очках.
В сказках ж просто чудеса.
Говорят тут зеркала.
В кранах теплая вода.
И не отключают свет.
припев
Сказка называется!
"Спящая Красавица"!
Но она там не в гробу!
И ее я не ебу!
Если вас в детстве кидали с дивана.
Или ногами пинали как надо.
Или сказки страшные вам.
Рассказывал кто-то по вечерам.
И вы от страха ссались в пастель.
При мысли одной, придет Бармалей.
Или убийца-садист Мойдодыр.
Со своим умывальником вас "дыр-дыр."
И вобщем все если это было.
Слушайте новую сказку дебилы.
припев
Или бабка Шапокляк!
Показала вам гудок!
Показала вам гудок!
Волосатый между ног!




Ваше мнение



Капча