Date: Fri, 11 Apr 1997 07:00:59 PDT
From: pa i
Subject: k/kraftwerk/the_model.tab
Originally transcribed by...
Transcribed by:Axl Ice
970411
[email protected]#----------------------------------PLEASE NOTE--------------------------------#
Date: Sun, 26 Apr 1998 21:17:41 +0300 (EET DST)
From: Mikko Saari
Subject: k/kraftwerk/the_model.tab
Kraftwerk: The Model
~~~~~~~~~~~~~~~~~~~~~~
by: [email protected]
Guitar
~~~~~~
Riff 1 (little distortion)
G|----------------------------------------------------------------
D|----------------------------------------------------------------
A|-0-----0-3-0-3-0-----------------0-----0-3-0-3-0----------------
E|-----------------0-----0-3-0-3-------------------0-----0-3-0-3--
Riff 2 (low notes with major distortion, high with little dist.)
e|-------------------------------0-5-------3-2-0-2-----3-0-------
B|---------------------------------------------------------------
G|---------------------------------------------------------------
D|---------------------------------------------------------------
A|-0---0---0-3-2-0-2---------------------------------------------
E|-----------------------3-0-----------------------------------0-
Riff 3 (low notes with major distortion, high with little dist.)
e|-------------------------------0-5-------3-2-0-2-----3-0-------
B|---------------------------------------------------------------
G|---------------------------------------------------------------
D|---------------------------------------------------------------
A|-0---0---0-3-2-0---2-------------------------------------------
E|-----------------------3-0-----------------------------------0-
Riff 4 (low notes with major distortion, high with little dist.)
e|-------------------------------0-5-------3-2-0-2-----3-0-------
B|---------------------------------------------------------------
G|---------------------------------------------------------------
D|---------------------------------------------------------------
A|-0-0-0-0-0-3-2-0---2-------------------------------------------
E|-----------------------3-0-----------------------------------0-
Riff 5 (some distortion)
D|-10---------------9-------------7-5-------------------------------
A|-10---------------9-------------7-5-------------------------------
E|--8---------------7-------------5-3-------------------------------
Riff 6 (some distortion)
G|-5---------------4---------------9---------------13---14-16---------
D|-5---------------4---------------9---------------13---14-16---------
A|-3---------------2---------------7---------------11---12-14---------
Riff 7 (some distortion)
G|---------------------------------------------------------------0-
D|-2-------2---2-3-2-------2---0---2-------2---2-3-2-------2-------
A|---3-0-3---3-------2---2-----------3-0-3---3-------2---2---------
E|---------------------3-------------------------------3-----------
Riff 8 (some distortion)
G|-----------------------------------------------------------------
D|-2-------2---2-3-2-------2---0---2-------2---2-3-2-------2-------
A|---3-0-3---3-------2---2-----------3-0-3---3-------2---2---------
E|---------------------3-------------------------------3-----------
Bass
~~~~
Riff 1
G|----------------------------------------------------------------
D|----------------------------------------------------------------
A|-0-----0-3-0-3-0-----------------0-----0-3-0-3-0----------------
E|-----------------0-----0-3-0-3-------------------0-----0-3-0-3--
Riff 2
G|-----6-------6-------5-------5-----------------------------------
D|-------------------------------------2-------2-------2-------2---
A|-3-----3---3-----2-----2---2-------------------------------------
E|---------------------------------0-----0---0-----0-----0-0-0-----
Riff 3
G|-----6-------6-------5-------5-----------------------------------
D|-------------------------------------0-------0-------0-------0---
A|-3-----3---3-----2-----2---2-------------------------------------
E|---------------------------------3-----3---3-----3-----3-3-3-----
Synth
~~~~~
Riff 1
e|-0-0-0-0-0-0-0-0-----------------0-0-0-0-0-0-0-0-----------------
B|-----------------0-0-0-0-0-0-0-0-----------------0-0-0-0-0-0-0-0-
Riff 2
B|-1-1-1-1-1-1-1-1-0-0-0-0-0-0-------------------------------------
G|-----------------------------2-0-0-0-0-0-0-0-0-0-0-0-0-0-0-0-0-0-
Riff 3
e|---------------------------------0-0-0-0-0-0-0-0-0-0-0-0-0-0-0-0-
B|-1-1-1-1-1-1-1-1-0-0-0-0-0-0-0-0---------------------------------
How it goes
~~~~~~~~~~~
Guitar 1 1 2 2 3 4 5 6 7 7 7 8 5 6 2 2 3 4 7 8 1 1
Bass 1 1 1 1 1 1 2 3 1 1 1 1 2 3 1 1 1 1 1 1 1 1
Synth 1 1 1 1 1 1 2 3 1 1 1 1 2 3 1 1 1 1 1 1 1 1
| twice |
Lyrics
~~~~~~
She's a model and she's looking good
I'd like to take her home that's understood
She plays hard to get, she smiles from time to time
It only takes a camera to change her mind
She's going out tonight, loves drinking just champagne
And she has been checking nearly all the men
She's playing her game and you can hear them say
She is looking good, for beauty we will pay
She's posing for consumer products now and then
For every camera she gives the best she can
I saw her on the cover of a magazine
Now she's a big success, I want to meet her again





Ваше мнение



Капча