Song: Size of an Ant
Artist: Kottonmouth Kings
Album: High Society
Tabbed by: Keith ([email protected])
AIM: Order By Chaos
let me know if any of this is wrong

intro
G|-------------------
D|-------------------
A|-------------------
E|-0h3--0h3-0h3-0h3--

verse
G|-------------------
D|-----6^------------
A|-------------------
E|-3h4-----0h3--3-3--

end verse
G|-------------------------
D|-----6^------------------
A|-------------------------
E|-3h4-----0h3-0h3-0h3-h3--

chorus and ending
G|-----------------------------------------
D|-----------------------------------------
A|-----------------------------------------
E|-0h3--3-3--0h3--3-3--0h3--3-3--0h3--3-3--





Ваше мнение



Капча