Song: Face Facts
Artist: Kottonmouth Kings
Album: High Society
Tabbed by: Keith ([email protected])
AIM: Order By Chaos
let me know if any of this is wrong

This is played just about the whole song... not hard
to figure out.
G|----------------------------------------------|
D|----------------------------------------------|
A|------------------------------4---------------|
E|--------------------------------4-------------|
B|--2--2-2---2--2-2--5--2---2-2------2---2-2--5-|

This is only played once, right when the bass comes in
on Dog Boy's part.
G|------------------------------|
D|------------------------------|
A|--------------------------4-4-|
E|--------------2---------------|
B|--2--2--2--2----3-2--2--2-----|





Ваше мнение



Капча