#----------------------------------PLEASE NOTE---------------------------------#
#This file is the author's own work and represents their interpretation of the #
#song. You may only use this file for private study, scholarship, or research. #
#------------------------------------------------------------------------------#
Группа/Band: КОРРОЗИЯ МЕТАЛЛА|KORROZIA METALLA
Песня/Song: Русская Водка |Russian Vodka
Альбом/Album: Russian Vodka |Russian Vodka
Год/Year: 1989 |1989
Комментарии/Comments:
This song was also presented on the following albums: "Дебош В Орленке/Debosh V
Orlienke" (1990), "Nicht Kapituliren" (1995), "Адский Концерт/Hellish Concert"
(1997). This tab may be not 100% correct but that's how we play it. Thanx for
Your attention. Mail me. Enjoy!
TablEdited by KindeR-NecRomantic ([email protected])
Tuning: EADGBE [Standart] Time Signature: 4/4
Riff 1: x6 (first 2 times only guitar plays, then bass & drums are get in)
| | | |
|--------------------------------|
|--------------------------------|
|--------------------------5-5-4-|
|6-7-7-7-6-7-7-7-6-7-7-7---5-5-4-|
|6-7-7-7-6-7-7-7-6-7-7-7---3-3-2-|
|4-5-5-5-4-5-5-5-4-5-5-5---------|
Verse: x2
| | | | | | | |
|----------------------------------------------------------------|
|----------------------------------------------------------------|
|----------------------------------------------------------------|
|6/7-----------------------------6/7-----------------------------|
|6/7-7-7-7-7-7-7-7-7-7-7-7-7-7-7-6/7-7-7-7-7-7-7-7-7-7-7-7-7-7-7-|
|4/5-5-5-5-5-5-5-5-5-5-5-5-5-5-5-4/5-5-5-5-5-5-5-5-5-5-5-5-5-5-5-|
|----------------------------------------------------------------|
|----------------------------------------------------------------|
|----------------------------------------------------------------|
|4---------------------------4-4-7-------------------------------|
|4---------------------------4-4-7-------------------------------|
|2---------------------------2-2-5-------------------------------|
Chorus:
| | | | | | | |
|----------------------------------------------------------------|
|----------------------------------------------------------------|
|----------------------------------------------------------------|
|7---8---9---10--7---8---9---10--7---8---9---10--7---8---9---10--|
|7---8---9---10--7---8---9---10--7---8---9---10--7---8---9---10--|
|5---6---7---8---5---6---7---8---5---6---7---8---5---6---7---8---|
| | | | | | | |
|----------------------------------------------------------------|
|----------------------------------------------------------------|
|----------------------------------------------------------------|
|7-7-7-7-7-7-7-7-6-7-7-7-6-7-7-7-7-7-7-7-7-7-7-7-6-7-7-7-6-7-7-7-|
|7-7-7-7-7-7-7-7-6-7-7-7-6-7-7-7-7-7-7-7-7-7-7-7-6-7-7-7-6-7-7-7-|
|5-5-5-5-5-5-5-5-4-5-5-5-4-5-5-5-5-5-5-5-5-5-5-5-4-5-5-5-4-5-5-5-|
|----------------------------------------------------------------|
|----------------------------------------------------------------|
|--------------------------------8---------------6---------------|
|7-7-7-7-7-7-7-7-6-7-7-7-6-7-7-7-8---------------6---------------|
|7-7-7-7-7-7-7-7-6-7-7-7-6-7-7-7-6---------------4---------------|
|5-5-5-5-5-5-5-5-4-5-5-5-4-5-5-5---------------------------------|
Intro x4
Verse
Chorus
Intro x4
| | | | | | | |
|------------------------------------------------------------------|
|------------------------------------------------------------------|
|------------------------------------------------------------------| X2
|-4-----4-----4-4-4-----4-----4-4-4-----4-----4-4-4-----4-----4-4--|
|-4-4-4-4-4-4-4-4-4-4-4-4-4-4-4-4-4-4-4-4-4-4-4-4-4-4-4-4-4-4-4-4--|
|-2-2-2-2-2-2-2-2-2-2-2-2-2-2-2-2-2-2-2-2-2-2-2-2-2-2-2-2-2-2-2-2--|
PM. ... ... ... ... ... ... ...
| | | | | | | |
|------------------------------------------------------------------|
|------------------------------------------------------------------|
|------------------------------------------------------------------| X4
|-7-7-7-7-7-7-7-7-7-7-7-7-7-7-7-7-4-4-4-4-4-4-4-4-4-4-4-4-4-4-4-4--|
|-7-7-7-7-7-7-7-7-7-7-7-7-7-7-7-7-4-4-4-4-4-4-4-4-4-4-4-4-4-4-4-4--|
|-5-5-5-5-5-5-5-5-5-5-5-5-5-5-5-5-2-2-2-2-2-2-2-2-2-2-2-2-2-2-2-2--|
|------------------------------------------------------------------|
|------------------------------------------------------------------|
|------------------------------------------------------------------| X4
|-7-------------------------------4--------------------------------|
|-7-------------------------------4--------------------------------|
|-5-------------------------------2--------------------------------|
Intro x4
Verse
Chorus
Intro x4
Intro x4
Intro x4
|--------------------------------|
|--------------------------------|
|--------------------------------|
|-7------------------------------|
|-7------------------------------|
|-5------------------------------|
Created with TablEdit http://www.tabledit.com/
Текст/Lyrics:
Огненной водой
Наполняй стакан
Вместе с Сатаной
Выпей за меня
Эй ты зверю дай
Водки чтоб взорвали рай
Выпускай торпеду
Бешенный мотор
Водка это порох
Сатаны топор
Эй ты зверю дай
Водки чтоб взорвали рай
Русской водкой нас встречай
Водка дьявол водки дай
Russian vodka
Russian vodka
Russian vodka
Russian vodka
Водки дай
Батарея смерти
Рэкет гробовой
Поджигайте школу
Огненной водой
Эй ты зверю дай
Водки чтоб взорвали рай
Русской водкой нас встречай
Водка дьявол водки дай
Russian vodka
Russian vodka
Russian vodka
Russian vodka
Водки дай
Батарея смерти
Рэкет гробовой
Поджигайте школу
Огненной водой
Эй ты зверю дай
Водки чтоб взорвали рай
Русской водкой нас встречай
Водка дьявол водки дай
Russian vodka
Russian vodka
Russian vodka
Русская водка
Леееей
- Толик отдай деньги
- Алё касса
- Алё алё осторожно
- Сырок отдайте
- Души их к черту
- У-у-у
- Сырок дайте мой сырок
- нет
- У-у-у
- Водка
Леееей




Ваше мнение



Капча