Делай, Что Хочется.
Делай, Что Хочется. INTRO|INTERLUDE END
e |-----------------------------|------------------------------|------|
B |-----------------------------|------------------------------|------|
G |-----------------------------|-1010101071010107-7-7-5-7-7-7|------|
D |-3~~~------------------------|-1010101071010107-7-7-5-7-7-7|-5-6-7|
A |-----------------------------|-8-8-8-8-58-8-8-5-5-5-3-5-5-5|-3-4-5|
E |-----------------------------|------------------------------|------|
Закройте школу, круши, ломай
Насри на всех и знай:
Долой буржуев, держись правей
Им похоронный марш звучит все злей
П Р И П Е В:
Делай, что хочется - круши и ломай!
Война и революция
Девки, музыка, бухло и угар!
Один был парень - хороший друг
Ушел из дома, и он стал бандюг
Другой стал панком, студент-фашист
Под знаменем красным стал коммунист
/Припев/
Смотрите, трупы плывут в реке
Дерьмо Макдональдс утопи в толчке
Давай, ломай, круши, взрывай!
Давай, ломай и круши, кусай!
/Припев/
Девки, музыка, бухло и угар!
О-па!

Intro:
e |-----------------------------------------------------------------------|
B |-----------------------------------------------------------------------|
G |-9-9-x-9-7-7-x-7-4-4-x-4-4--9-9-x-9-7-7-x-7-4-4-xx-4---3/4-4-3/4-4-3-4-|
D |-9-9-x-9-7-7-x-7-4-4-x-4-4--9-9-x-9-7-7-x-7-4-4-xx-4---3/4-4-3/4-4-3-4-|
A |-7-7-x-7-5-5-x-5-2-2-x-2-2--7-7-x-7-5-5-x-5-2-2-xx-2---1/2-2-1/2-2-1-2-|
E |-----------------------------------------------------------------------|
Делай, Что Хочется. INTRO|INTERLUDE END
e |-----------------------------|------------------------------|------|
B |-----------------------------|------------------------------|------|
G |-----------------------------|-1010101071010107-7-7-5-7-7-7|------|
D |-3~~~------------------------|-1010101071010107-7-7-5-7-7-7|-5-6-7|
A |-----------------------------|-8-8-8-8-58-8-8-5-5-5-3-5-5-5|-3-4-5|
E |-----------------------------|------------------------------|------|
Закройте школу, круши, ломай
Насри на всех и знай:
Долой буржуев, держись правей
Им похоронный марш звучит все злей
П Р И П Е В:
Делай, что хочется - круши и ломай!
Война и революция
Девки, музыка, бухло и угар!
Один был парень - хороший друг
Ушел из дома, и он стал бандюг
Другой стал панком, студент-фашист
Под знаменем красным стал коммунист
/Припев/
Смотрите, трупы плывут в реке
Дерьмо Макдональдс утопи в толчке
Давай, ломай, круши, взрывай!
Давай, ломай и круши, кусай!
/Припев/
Девки, музыка, бухло и угар!
О-па!
Intro:
e |-----------------------------------------------------------------------|
B |-----------------------------------------------------------------------|
G |-9-9-x-9-7-7-x-7-4-4-x-4-4--9-9-x-9-7-7-x-7-4-4-xx-4---3/4-4-3/4-4-3-4-|
D |-9-9-x-9-7-7-x-7-4-4-x-4-4--9-9-x-9-7-7-x-7-4-4-xx-4---3/4-4-3/4-4-3-4-|
A |-7-7-x-7-5-5-x-5-2-2-x-2-2--7-7-x-7-5-5-x-5-2-2-xx-2---1/2-2-1/2-2-1-2-|
E |-------------------------------------------------------------------------




Ваше мнение



Капча