C#m5(IV) C#m5 C#m5 E5(VII) | x 4

C#m5 C#m5 C#m5 E5
Где справедливость - уж который год,
Жители предгорья, очень мирный народ,
Страдали от того, что старый вампир
Таскал их свиней и кровь у них пил.

A(V) F#m A F#m A|--slide---|
Послали к вампиру Степана-детину. Bass: E|--2>12----|
C#m5 C#m5 C#m5 E5
Среди скал парень логово искал.
Там, где старый вампир чужую кровь пил.
И в его словах Степан услыхал
Угрозу и насмешку "Ты попал!
A F#m A F#m
Плохая идея быть гостем злодея!"

C#m A F#m H
- Что тебе здесь надо, дурачок?
- Водки выпить надо, старичок!
H(II) A(II) F#m G#m
- В гости ко мне мало кто заходит.

Все же на обед выгоды мне нет,
Кушать тебя - люди мне приелись.

В этот миг вдруг детина приник:
"Что ты дурачком меня дразнишь старик?
Я такой же как ты ненавижу свиней,
Потому что все смеются, что я хряка дурней.

Их всех ненавижу, в гробу я их вижу!"

- Что тебе здесь надо, дурачок?
- Водки выпить надо, старичок!
- В гости ко мне мало кто заходит.
Все же на обед выгоды мне нет
Кушать тебя - люди мне приелись.
E|-----7-9------|-----7-9-----7-9-|
H|-7-9----------|-7-9-----7-9-----|

E|-----7-9------|-----7-9---------|
H|-7-9----------|-7-9-----7-------|

H---------------------9--7-------------|
G|-5-6--6-5-6--6-5-6-5-6-5-6-5-6--------6~~~~~~~~~-|

H---------------------9--7-----9--7----|
G|-5-6--6-5-6--6-5-6-5-6-5-6-5-6--------6--------6-|

H|-------7--9--|
G|-8--9--------|

G#m G#m G#m G#m

C#m A F#m H
"По утру вдвоем
Бить свиней пойдем.
Мы с тобой, вампир,
Славный будет пир!"
C#m A F#m C#m
Славный будет пир!"




Ваше мнение



Капча