Водяной
Вступление:(циклически повторяется 4 раза)
A G
E-----------------------------
B-----------------------------
G-----------------------------
D-----------------------------
A----4-5--4--------4-5--4-5-7-
E-5---------5-4-3-------------
В куплете под аккорды играется(9/11-слайд, т.е. быстрое скольжение с 9 лада на 11)
A G Hm D С5 H5
E-------------------------------------------------------------------------
B-------------------------------------------------------------------------
G----9-9/11-9---------9-9/11-9---------7-7/9-7--------7-7/9-7-------------
D-7-----------11-9-7-----------11-9-5----------9-7-5----------9-7-9-----9-
A-------------------------------------------------------------------------
E-------------------------------------------------------------------------
A
В лесном пруду вода играла
G
В солнечных лучах
Hm
С охоты шёл .......
D (C5 H5)быстро
Бобра нёс на плечах
A
Знойной порой дорогой лесной
G
Домой он брёл устало
Hm
У пруда как всегда
D
Он встал-рожу мыть стал
Припев:
A G
Освежает иногда
A G
В зной холодная вода
A G
Чтобы не стряслась беда
A G
Эй, мужик не лезь туда!
Но сильно искажала
Отражение вода
Какой урод вот это да!
В пиявках вся борода
Вот ерунда четыре ведра
Как будто браги выпил
Постарел, подурнел,
Оброс - паршивый как пёс
Припев.
F#
Уау-уау-уау-уау........
(H E F# H)*2 раза
H E F# H
Вскоре очень злой вылез водяной
H E F# H




Ваше мнение



Капча