--==Подбор: Artem Ustуantsev (2:5002/28.30)==--

Intro:
D|------------------|-
A|----------------5-|- x4
E|-7--7-7-7-0-3-5---|-

G|--------------7--------------7-|-
D|-9-x-x-9---5--7-9-x-x-9---5--7-|-
A|-9-x-x-9---5--5-9-x-x-9---5--5-|- x2
E|-7-x-x-7-0-3----7-x-x-7-0-3----|-

Riff#1
G|---------------7---------------7-|-
D|-9-x-x-9---5-7-7-9-x-x-9---5-7-7-|-
A|-9-x-x-9---5-7-5-9-x-x-9---5-7-5-|-
E|-7-x-x-7-0-3-5---7-x-x-7-0-3-5---|-

Riff#2
E|-----------|-
H|-----------|- тремолировать
G|-7---4---0-|- каждую ноту
D|-----------|-

Riff#3
D|-------------|-
A|-2-------5---|-
E|---2-3-5---5-|-

I
А на скотном дворе начиналось утро,
With Riff#1
Hа скотном дворе начиналось утро,
Доярка спешила коров подоить,
В коровнике было тепло и уютно,
Cкотине хотелось поесть и попить.

А на скотном дворе начиналось утро,
H5 F#5 G5 D5 A5
У--у---у-у-у--у...
H5 D5 E5 D5
Скотный двор!

Припев:
H5 E5 A5 D#5
Там, там, там, где веселый рассвет, (рассвет!)
H5 E5 A5 D#5
Утро встречают коровы и дед.
Там, там, там, где веселый рассвет,
Там, где свининку покушивал дед. Дед!

II
А на скотном дворе начиналось утро,
И свиньи пузатые в лужах валялись,
Дедулю с лопатой немного боялись,
Который поблизости рыл огород,
Хватал червяков и совал себе в рот
А на скотном дворе начиналось утро,
У-у-у-у-у-у... Скотный двор!

Припев.

III

Бараны лениво поднялись с постели
И с глупыми мордами вдаль поглядели
Туда, где восходит веселый рассвет,
Туда, где свининку покушивал дед.

C#5 F#5 H5 F5
Там, там, там, где веселый рассвет,
Там, где свининку покушивал дед.

Срань господня!




Ваше мнение



Капча