Помнят с горечью древляне
Соло после 2 куплета:

G Em
1|---------------------------------------------------5/7--5--|
2|------8--10--8--10--12--10-8-----8--7-----7--8-------------|
3|-7/9--------------------------9--------9--------9----------|
C D |-это всё играется
1|--------8--7-----5-----------------------5-- | 2 раза
2|--------------8-----8-5-8-5--8--8--7--7----- |
3|--5--5-------------------------------------- |

Потом
H Am
4|--9----7---------------9----7----5--
5|-------------9----5-------------------

P.S. огромная благодарность Иванову В.С.




Ваше мнение



Капча

Комментарии

лол
одна гитара соло, другая аккорды
123
как играть табу вместе с аккордами??