Intro:
Нm G A (Asus4,A,Asus4,A,Asus2,A)
E)-2--2----3-3-----0--0-0-0-0-0-0-0--|
Н)-3--3----3-3-----2--2-3-2-3-2-0-2--|
G)-4--4----4-4-----2--2-2-2-2-2-2-2--|
D)-4--4----5-5-----2--2-2-2-2-2-2-2--| [x4]
A)-2--2----5-5-----0--0-0-0-0-0-0-0--|
E)-2--2----3-3-----------------------|
With distorshn:
Н5 G5 A5
E)-----------------------------------|
Н)-----------------------------------|
G)-4-4-4-4---------------------------|
D)-4-4-4-4-5-5-5-5-7-7-7-7-7-7-7-7---| [x4]
A)-2-2-2-2-5-5-5-5-7-7-7-7-7-7-7-7---|
E)---------3-3-3-3-5-5-5-5-5-5-5-5---|
Bass: (bass->guitar tabs)
E)-----------------------------------|
Н)-----------------------------------|
G)-----------------------------------| [x6]
D)-----------------------------------|
A)-2-2-4-5-----4-5----4-5-/7-5-4-5---|
E)---------3-3-----------------------|
Verse1:
Нm (A)
E)-2----2--2-------------------------|
Н)-3----3--3-----2-2-2-3-2-0-2-------|
G)-4----4--4-------------------------|
D)-4----4--4-------------------------|
A)-2----2--2-------------------------|
E)-2----2--2-------------------------|
Нm (A)
E)-2----2--2-------------------------|
Н)-3----3--3-----2-2-2-3-2-3-5-------|
G)-4----4--4-------------------------|
D)-4----4--4-------------------------|
A)-2----2--2-------------------------|
E)-2----2--2-------------------------|
Нm (A) (G) (A)
E)-2----2--2-------------------------|-------|
Н)-3----3--3-----2-2-2-3-2-0-2-------|-------|
G)-4----4--4-------------------------|-------|
D)-4----4--4-------------------------|-------|
A)-2----2--2-------------------------|-------|
E)-2----2--2-------------------------|-------|
Witn distorshn
Н5 р.M-------------\
E)-----------------------------------|
Н)-----------------------------------|
G)-----------------------------------|
D)-4----4--4-------------------------|
A)-4----4--4-----4-4-4-5-4-2-0-------|
E)-2----2--2-------------------------|
Н5 р.M-------------\
E)-----------------------------------|
Н)-----------------------------------|
G)-----------------------------------|
D)-4----4--4-------------------------|
A)-4----4--4-----4-4-4-5-4-5-7-------|
E)-2----2--2-------------------------|
Н5 р.M-------------\ (G) (A)
E)-----------------------------------|-------|
Н)-----------------------------------|-------|
G)-----------------------------------|-------|
D)-4----4--4-------------------------|-------|
A)-4----4--4-----4-4-4-5-4-2-0-------|-------|
E)-2----2--2-------------------------|-------|
Chorus:
D5 A5 Н5 F#5 G5 A5 Н5
E)-----------------------------------|
Н)-----------------------------------|
G)-7-7-----4-4-----------------------|
D)-7-7-7-7-4-4-4-4-5-5-7-7-9-9-------|
A)-5-5-7-7-2-2-4-4-5-5-7-7-9-9-------|
E)-----5-5-----2-2-3-3-5-5-7-7-------|
D5 A5 Н5 F#5 G5 A5 Н5 A5 Н5
E)-----------------------------------|---------|
Н)-----------------------------------|---------|
G)-7-7-----4-4-----------------------|---------|
D)-7-7-7-7-4-4-4-4-5-5-7-7-9-9-------|-7-7-9-9-|
A)-5-5-7-7-2-2-4-4-5-5-7-7-9-9-------|-7-7-9-9-|
E)-----5-5-----2-2-3-3-5-5-7-7-------|-5-5-7-7-|
Verse2.
Chorus.
Solo:
Н5 G5 A5 Н5 G5 A5 - Rуthm Guitar
E)------------------|---------------------|
Н)------------------|---------------------|
G)------------------|---------------------| [x2]
D)-----------4----2-|-----------4----/7~~-|
A)-2----5-----------|-2----5--------------|
E)------------------|---------------------|
Verse3.
Chorus [x2].
Verse4:
Bass:
|Нm |Нm |Нm G Em F# |
|Нm |G A |
Lуrics:
Нm G A
Шелестит трава
Нm G A
В лесу шипит змея
Нm G A
Плывут по небу облака
G A
Высоко луна
Нm G A
У пруда я их встретил
Нm G A
Парни пили и ели
Нm G A
Веселый пир в глуши лесной
G A
Выпить все хотят со мной
A D A Нm
Выпей с нами пива барин
F# G A
Не стесняйся пей скорей
Нm D A Н
Ты поверь уж мы то знаем
F#5 G A
Толк в напитке пей скорей
A Нm
Пей не жалей
Уклонятся не стал я
Выпил странного пива
Плывут по небу облака
Понесло меня
Голова моя летит над землей
Руки, ноги попращались со мной
Попозже тело улетело
Боже, как это надоело
Говорила мне мать не зря
Пить с чужими сынок нельзя
С людьми еще туда сюда
С демонами - никогда
Сувенир теперь моя голова
Замечательная пепельница
Много денег стоит она
Я нынче строг к себе, друзья
Пиво пьют без меня




Ваше мнение



Капча