G-|-6-^6-^6-^6-
D-|-6------------
A-|-4------------
Аккорды
G-|-6-6-6-6-6-6-6-6-6-6-2-2-2-2-2---
D-|-6-6-6-6-6-6-6-6-6-6-2-2-2-2-24-4-4-4-4
A-|-4-4-4-4-4-4-4-4-4-4-0-0-0-0-04-4-4-4-4
E-|--------------------------------------2-2-2-2-2
Припев
G-|-6-6-6-6-2-
D-|-6-6-6-6-2-4-
A-|-4-4-4-4-0-2-
Cоло
E||------------------|-----------------|--------------------|
B||------------------|-----------------|--------------------|
G||------------------|--6--6--------6--|--------------------|
D||------------------|--6--6--------6--|--------6-----------|
A||------------------|--4--4--4-4-4----|--------4-----------|
E||------------------|-----------------|--------------------|

--------------------------|-------------4--2--0----|-----0--2-------------|
--------------5-----7-----|-------5----------------|--2--------2----------|
--------4--6-----6-----6--|----6-----6-------------|----------------------|
--4--6--------------------|------------------------|----------------------|
--------------------------|------------------------|----------------------|
--------------------------|------------------------|----------------------|

--9--7----------------|----------------------|--------------------------|
--------9--7----------|--------7--9----------|--------7--9--------7--9--|




Ваше мнение



Капча